Incubus - Crowded Elevator Chords & Tabs

 

Crowded Elevator Chords & Tabs

Incubus Chords & Tabs

Version: 3 Type: Tab 0 ratings
1 star 2 stars 3 stars 4 stars 5 stars
comments

Crowded Elevator Tab

SONG: CROWDED ELEVATOR
BAND: INCUBUS
TAB BY: jaylomot@yahoo.com


Intro:

E:------------------------------	E:----------------------------------------
B:------------------------------	B:----------------------------------------
G:------------------------------	G:----------------------------------------
D:------------------------------	D:---------7---6---7---6----6-------------
A:------5---7^-0-----5-5--------	A:--2--5/7---7---7---7----7---7----2------
E:--0-0---0-----0--3------------	E:--0------------------------------0------



e:---------------------------------------------0-0-0-0-0-0------------------------
B:---------------------------------------------5-5-5-5-5-5------------------------
G:--------------------------------------------------------------------------------
D:--------------7----6----7---6----6-------5--------------------------------------
A:--2----5/7--7----7----7---7----7---7-----5--------------------5-5------5-5---2--
e:--0-------------------------------------------------------0-3------0-3-------0--

STANZA:

e:----------------------------
B:----------------------------
G:----------------------------
D:----------------------------
A:------5---7^-0-----5-5------
e:--0-0---0------0-3----------


REFRAIN:

e:------------------------------------------
B:------------------------------------------
G:------------------------------------------
D:---9--9-9----5-5-5----4-4-4-4-----2-2-----
A:---7--7-7----3-3-3----2-2-2-2-----0-0-----
e:------------------------------------------
[ Tab from: http://www.guitartabs.cc/tabs/i/incubus/crowded_elevator_tab_ver_3.html ]
e:-------------------------------------------------------------------------
B:-------------------------------------------------------------------------
G:-------------------------------------------------------------------------
D:-------------------------------------------------------------------------
A:------5---7^-0------5-5------5-5-----2-----------------------------------
e:--0-0---0------0--3------0-3---------0-----------------------------------

CHORUS:

e:---------------------------------------------0-0-0-0-0-0------------------------
B:---------------------------------------------5-5-5-5-5-5------------------------
G:--------------------------------------------------------------------------------
D:--------------7----6----7---6----6-------5--------------------------------------
A:--2----5/7--7----7----7---7----7---7-----5--------------------5-5------5-5---2--
e:--0-------------------------------------------------------0-3------0-3-------0--

BRIDGE:

e:--------------------------------------------------------------------------
B:-----------8----------8--------------11-------------11--------------------
G:---------9----------9-------------12-------------12-----------------------
D:--------------------------------------------------------------------------
A:----7------------------------10-------------------------------------------
e:----------------8----------------------------11---------------------------

Thats it, now all you have to do is figure out what order they go 
in. if you have any questions e-mail me. (jaylomot@yahoo.com)
Comments