Incubus - Crowded Elevator Chords & Tabs

 

Crowded Elevator Chords & Tabs

Incubus Chords & Tabs

Version: 1 Type: Bass Tab 0 ratings
1 star 2 stars 3 stars 4 stars 5 stars
comments

Crowded Elevator Bass Tab

Band : Incubus
Song : Crowded Elevator (Bass Tablature)
Album: Scream 3 Soundtrack
Tabbed By: TroaLance17

Intro/Outro:

G----------------------------------------------------|
D------7---6---7---6-----------7---6---7---6---------|
A----7---7---7---7---7-5-7---7---7---7---7---7-5-7--|
E--0-----------------------0-------------------------|
B----------------------------------------------------|

Continued:
                                            Outro ends here
G----------------------------------------------------------|------------|
D----------------------------------------------------------|------------|
A------------------------------------------5-5-----6-7-----|--1/157-----|
E--0---5---4---5---4-------0-1-1-0-1-1-0-0-----0-0-----0---|------------|
B----5---5---5---5---5-3-5---------------------------------|------------|
[ Tab from: http://www.guitartabs.cc/tabs/i/incubus/crowded_elevator_btab.html ]
Verse:
Repeat three times,
G-----14----13---------------13-----|
D--14----14--------------------14---|
A--------------x-x-x-11-11-9--------|
E-----------------------------------|
B-----------------------------------|
Then,
G-----14----13----------------------|
D--14----14-------------------6-----|
A--------------x-x-x-11-11-9----7---|
E-----------------------------------|
B-----------------------------------|
Repeat 4 times,
G-----------------------------------|
D----7---6--------------6-----------|
A--7---7------------------7---------|
E----------x-x-x-4-4-2--------------|
B-----------------------------------|

Pre-chorus: Repeat 3 Times,
G----------------------------------|
D----------------------------------|
A-7-7-7-3-3-3-3-2-2-2-2-0-0-0-0---|
E----------------------------------|
B----------------------------------|
Then,
G----------------------------------|
D----------------------------------|
A---------5-5------6-7------------|
E-0-0-4-4-----4-4-----------------|
B----------------------------------|

Chorus: (Plays twice the first Chorus, Four times the second Chorus)
G------------------------------------------------------|
D------------------------------------------------------|
A----5-6-7-----5-5-----6-7-----------------5-5-----6-7-|
E-0-------4-4-----4-4-----0-1-1-0-1-1-0-0-----0-0-----|
B------------------------------------------------------|

Bridge: Repeat 4 Times
G----------------------------------|
D----------------5-5-5-5-----------|
A-7-7-7-3-3-3-3---------5-5-5-5-5-|
E----------------------------------|
B----------------------------------|

1. Intro/Outro
2. Verse
3. Pre-Chorus
4. Chorus
5. Verse
6. Pre-Chorus
7. Verse
8. Bridge
9. Pre-Chorus
10.Chorus
11.Intro/Outro
Comments