Incubus - Consequence Chords & Tabs

 

Consequence Chords & Tabs

Incubus Chords & Tabs

Version: 2 Type: Tab 0 ratings
1 star 2 stars 3 stars 4 stars 5 stars
comments

Consequence Tab

Song - Consequence 
Artist - Incubus 
Album - Make yourself 
Tabbed by Tom Kelly 
standard tuning. 
intro/riff 1 
e|------------------------------------------------------ 
B|-------------0------------------0--------0------------ 
G|----------13-----13s----------8-----8s---4------------ 
D|--------0---------0---------0-------0----0------------
A|-----11----------11s------6---------6s---2------------
E|--12-------------12s----7-----------7s---3------------

e|------------------------------------------------------ 
B|-------------0------------------0--------------0------
G|----------13-----13s----------8---8-----7-7s---4------
D|--------0---------0---------0-------------0----0------
A|-----11----------11s------6-----------5---5s---2------
E|--12-------------12s----7-----------6-----6s---3------
  

riff 2 (with distortion) 
e|------------------------------------------------------ 
B|---0--0--0----0-0-0--0-0-0----------------------------
G|--13-13-13----8-8-8--7-7-4----------------------------
D|---0--0--0----0-0-0--0-0-0----------------------------
A|--11-11-11----6-6-6--5-5-2----------------------------
E|--12-12-12----7-7-7--6-6-3----------------------------
[ Tab from: http://www.guitartabs.cc/tabs/i/incubus/consequence_tab_ver_2.html ]
variation of riff 2(you can play either. the top one is better i think) 
e|------------------------------------------------------ 
B|------------------------------------------------------
G|------------------------------------------------------
D|---14-14-14---9-9-9-8-8-5----------------------------- 
A|---14-14-14---9-9-9-8-8-5----------------------------- 
E|---12-12-12---7-7-7-6-6-3----------------------------- 

riff 3 
e|------------------------------------------------------ 
B|------------------------------------------------------
G|------------------------------------------------------
D|--14-14-14-14--9-12-12-12-----------------------------
A|--14-14-14-14--9-12-12-12----------------------------- 
E|--12-12-12-12--7-10-10-10----------------------------- 

riff 4 
e|------------------------------------------------------ 
B|----------------------------------------12b-12b-12----
G|-11b(13) hold this for a long time-then--------------- 
D|------------------------------------------------------
A|------------------------------------------------------
E|------------------------------------------------------

riff 5 
e|------------------------------------------------ 
B|------------------------------------------------ 
G|------------------------------------------------ 
D|--9-9--9-9--9-9--9-9--8-8--8-8--8-8--5-5--------
A|--9-9--9-9--9-9--9-9--8-8--8-8--8-8--5-5--------
E|--7-7--7-7--7-7--7-7--6-6--6-6--6-6--3-3-------- 

Arrangement: 
intro 
verse - riff 1 x2 and riff 2 x1 
chorus - riff 2 x2 and riff 3 x4 
bridge - riff 5 x1 and riff 4 x1 

all verses and chorus are the same
Comments