Incubus - Consequence Chords & Tabs

 

Consequence Chords & Tabs

Incubus Chords & Tabs

Version: 1 Type: Tab 1 rating
1 star 2 stars 3 stars 4 stars 5 stars
comments

Consequence Tab

   
Band:Incubus
Song:Consequence
Album:Make Yourself
Transcribed By:Will at Hackman767@aol.com


	TUNING: standard E A D G B E
 
     INTRO picking pattern changes sometimes
    E|--------------------------------------------------|
    B|-------------12---------------7--------6-------3--|
    G|----------13----------------8----------7-------4--|
    D|--------0-----------------0------------0-------0--|
    A|-----11-----------------6------------5-------2----|
    E|--12------------------7------------6-------3------|

     CHORUS
    E|-----------------------------------------|
    B|-----------------------------------------|
    G|--9----9----9----9-----------------------|
    D|--9----9----9----9----9----9----9-----8--|
    A|--7----7----7----7----9----9----9-----8--|
    E|--7----7----7----7----7----7----7-----6--|
[ Tab from: http://www.guitartabs.cc/tabs/i/incubus/consequence_tab.html ]
    E|-----------------------------------------|
    B|-----------------------------------------|
    G|--9----9----9----9-----------------------|
    D|--9----9----9----9----9----9----8-8-5-5--|
    A|--7----7----7----7----9----9----8-8-5-5--|
    E|--7----7----7----7----7----7----6-6-3-3--|

     This part is played after the chorus 
    E|-------------------------|
    B|-------------------------|
    G|--9----9-9-----7---------|
    D|--9----9-9-9---7----7-6--|
    A|--7----7-7-9---5----7-6--|
    E|--7----7-7-7---5----5-4--|

     INTERLUDE
    E|-------------------------------------------------|
    B|-------------------------------------------------|
    G|-------------------------------------------------|
    D|--9-9---9-9---9-9---9-9---8-8---8-8---8-8---8-8--|
    A|--9-9---9-9---9-9---9-9---8-8---8-8---8-8---8-8--|
    E|--7-7---7-7---7-7---7-7---6-6---6-6---6-6---6-6--|

     SOLO
    E|------------------|
    B|------------------|
    G|--6----6-6--------|
    D|--6----6-6-6---7--|
    A|--4----4-4-6---7--|
    E|--4----4-4-4---5--|

Comments