Incubus - Consequence Chords & Tabs

 

Consequence Chords & Tabs

Incubus Chords & Tabs

Version: 2 Type: Bass Tab 0 ratings
1 star 2 stars 3 stars 4 stars 5 stars
comments

Consequence Bass Tab

Incubus
Song: Consequence
Album: Make Yourself
Tabbed by: Mr__Sucubus

Just play along with the song to get the timing down. I'm pretty sure 
that this is all correct, at least it's the way that I play the song. Enjoy!

1st Verse:
  (let ring then slide)              
|------------------------------------------------------
|------------------------------------------------------
|--7-7-7-7-7--\3------------------------7H9----5H7-----
|-----------------x-x-x-8--7-7-7-7-7--7----7\5----5\4--

|------------------------------------------------------------
|------------------------------------------------------------
|-7-7-7-7-7---\3--------------------------7------5--------5--
|--------------------x-x-x-8--7-7-7-7-7-7---5-5-5---4-4-4----

...better clear the air before your son becomes a...


|------------------------------------------------
|------------------------------------------------
|--7 (12X's)-------------------------------------
|---------------7 (8X's)-5-5-5-5-4-4-4-----------

... man!


2nd Verse:
|-----------------------------------------------------------
|-----------------------------------------------------------
|-------rest---------------------------------7H9---5H7------
|----------------------x-x-x-8--7-7-7-7-7--7----7\5----5\4--

|-------------------------------------------------------------
|-------------------------------------------------------------
|--7-7-7-7-7--\3-------------------------7H9-----5H7----------
|------------------x-x-x-8--7-7-7-7-7--7------7\5----5\4------

[ Tab from: http://www.guitartabs.cc/tabs/i/incubus/consequence_btab_ver_2.html ]
|---------------------------------------------------------
|---------------------------------------------------------
|-7-7-7-7-7---\3----------------------7-------5--------5--
|-----------------x-x-x-8--7-7-7-7-7-7---5-5-5---4-4-4----






Chorus:
|-----------------------------------------
|-----------------------------------------
|--7 (12X's)------------------------------
|---------------7 (10X's)-5-5-5-----------


|-----------------------------------------
|-----------------------------------------
|--7 (12X's)------------------------------
|---------------7 (8X's)-5-5-5-5-4-4-4----

Bridge:
|-------------------------------
|-------------------------------
|-7-7-7-7-----------------------
|----------6--10-10-10-4--------

|----------------------------------
|----------------------------------
|----------------------------------
|-77--77--77--77--55--55--55--66---

|----------------  |------------------
|----------------  |------------------
|----------------  |------------------
|-9----4-5----0--  |-9----4-5----7----

Chorus:
|----------------------------------
|----------------------------------
|--7 (12X's)-----------------------
|---------------7 (10X's)-5-5-5----

|-----------------------------------
|-----------------------------------
|--7(12X's)-------------------------
|-----------7(8X's)-5-5-5-5-4-4-4---

|-------------------------------
|-------------------------------
|-7-7-7-7-----------------------
|----------6--10-10-10-4--------



E-Mail me with any questions, comments, or corrections at mr_sucubus@yahoo.com
Comments