Incubus - Clean Chords & Tabs

 

Clean Chords & Tabs

Incubus Chords & Tabs

Version: 6 Type: Tab 0 ratings
1 star 2 stars 3 stars 4 stars 5 stars
comments

Clean Tab

Band: Incubus
Song: Clean
Album: Make Yourself
Transcribed by: Reinaldo Gonzalez
Effects: Distortion, Flanger, Phaser

Standard Tuning

Intro: (Ligth distortion)
e-----------------|
B-----------------|
G-----------------|
D-----------------|
A-----------------| X4
E--5h7-7---5h7-7--| 

And them! (Distortion)
e-----------------7-7-7----|
B--------------------------|
G--------------------------|
D--------------------------|
A--------------------------| X4
E--5h7-7---5h7-7-----------|
 
Post-Intro: (Distortion) 
e-----------------------7-7-7------|
B----------------------------------|
G----------------------------------|
D--7/9-9--7/9-9--xxxx--------------|
A--7/9-9--7/9-9--xxxx--------------| X4
E--5/7-7--5/7-7--xxxx--------------|
			
And them! (Distortion, distortion+Flanger*)
e----------------------------------|
B------------------9*9*9*9*--------|
G------------------7*7*7*7*--------|
D--7/9-9--7/9-9----8*8*8*8*--------|
A--7/9-9--7/9-9--------------------| X3
E--5/7-7--5/7-7--------------------|

Pre-Verse: (Distortion)
e----------------------|
B----------------------|
G----------------------|
D--7/9-9--7/9-9--------|
A--7/9-9--7/9-9--------| X3
E--5/7-7--5/7-7--------|

And them!
e----------------------|
B----------------------|
G----------------------|
D--7/9-9--7/9-99-9-----|
A--7/9-9--7/9-99-9-----| 
E--5/7-7--5/7-77-7-----|
 
Verse: (Tremolto)
e-----------------------------|
B-----------------------------|
G------6---6--6---------------|
D------4---4----4-------------|
A------x---x------------------| X2
E------5---5------5-----------|

And them!
e------7---7--7---------------|
B-----10--10----10------------|
G------8---8-------8----------|
D------9---9------------------|
A-----------------------------| X2
E-----------------------------|

Pre-Chorus: (Distortion+flanger) 
e--------------------|
B----9*9*9*9*--------|
G----7*7*7*7*--------|
D----8*8*8*8*--------|
A--------------------| 
E--------------------|

Chorus: (Distortion)
e-------------------------------------------| 
B-------------------------------------------| 
G--------7-777------------------------------|
D--7/9-9-7-777-7-777--7-7-7--5-5-5/7-77-----|
A--7/9-9-5-555-7-777--5-5-5--5-5-5/7-77-----|
E--5/7-7-5-555-5-555--3-3-3--3-3-3/5-55-----|

And them!
e------------------------------------------------------------| 
B------------------------------------------------------------| 
G-------------------7-777------------------------------------|
D--7/9-9-77--7/9-9--7-777-7-777--7-7-7--5-5-5/7-77-7/9-9-77--|
A--7/9-9-77--7/9-9--5-555-7-777--5-5-5--5-5-5/7-77-7/9-9-77--|
E--5/7-7-55--5/7-7--5-555-5-555--3-3-3--3-3-3/5-55-5/7-7-55--|
[ Tab from: http://www.guitartabs.cc/tabs/i/incubus/clean_tab_ver_6.html ]
Post-Chorus: (Distortion+flanger)
e--------------------|
B----9*9*9*9*--------|
G----7*7*7*7*--------|
D----8*8*8*8*--------|
A--------------------| 
E--------------------|

Verse: (Tremolto)
e-----------------------------|
B-----------------------------|
G------6---6--6---------------|
D------4---4----4-------------|
A------x---x------------------| X2
E------5---5------5-----------|

And them!
e------7---7--7---------------|
B-----10--10----10------------|
G------8---8-------8----------|
D------9---9------------------|
A-----------------------------| X2
E-----------------------------|

Pre-Chorus: (Distortion+flanger) 
e--------------------|
B----9*9*9*9*--------|
G----7*7*7*7*--------|
D----8*8*8*8*--------|
A--------------------| 
E--------------------|


Chorus: (Distortion)
e-------------------------------------------| 
B-------------------------------------------| 
G--------7-777------------------------------|
D--7/9-9-7-777-7-777--7-7-7--5-5-5/7-77-----|
A--7/9-9-5-555-7-777--5-5-5--5-5-5/7-77-----|
E--5/7-7-5-555-5-555--3-3-3--3-3-3/5-55-----|

And them!
e------------------------------------------------------------| 
B------------------------------------------------------------| 
G-------------------7-777------------------------------------|
D--7/9-9-77--7/9-9--7-777-7-777--7-7-7--5-5-5/7-77-7/9-9-77--|
A--7/9-9-77--7/9-9--5-555-7-777--5-5-5--5-5-5/7-77-7/9-9-77--|
E--5/7-7-55--5/7-7--5-555-5-555--3-3-3--3-3-3/5-55-5/7-7-55--|

Bridge:(full distortion)  
e|-------------------------------------------------| 
B|-------------------------------------------------|
G|-------------------------------------------------|
D|-------------------------------------------------|
A|-------------------------------------------------| 
D|--3-3-3-3--5-5-5-3-3-3-3-4-4-4-3-3-3/1-1-1-1-1---| I'm not sure 

Outro: (Distortion)
e-------------------------------------------| 
B-------------------------------------------| 
G--------7-777------------------------------|
D--7/9-9-7-777-7-777--7-7-7--5-5-5/7-77-----|
A--7/9-9-5-555-7-777--5-5-5--5-5-5/7-77-----|
E--5/7-7-5-555-5-555--3-3-3--3-3-3/5-55-----|

And them!
e------------------------------------------------------------| 
B------------------------------------------------------------| 
G-------------------7-777------------------------------------|
D--7/9-9-77--7/9-9--7-777-7-777--7-7-7--5-5-5/7-77-7/9-9-77--|
A--7/9-9-77--7/9-9--5-555-7-777--5-5-5--5-5-5/7-77-7/9-9-77--| X2
E--5/7-7-55--5/7-7--5-555-5-555--3-3-3--3-3-3/5-55-5/7-7-55--|

e----------------------|
B----------------------|
G----------------------|
D--7/9-9--7/9-99-9-----|
A--7/9-9--7/9-99-9-----| 
E--5/7-7--5/7-77-7-----|

Chers!
Comments