Incubus - Clean Chords & Tabs

 

Clean Chords & Tabs

Incubus Chords & Tabs

Version: 5 Type: Tab 0 ratings
1 star 2 stars 3 stars 4 stars 5 stars
comments

Clean Tab

   
incubus, clean.
Tabbed by brian, deftones_maniak@hotmail.com.
  
DROP D TUNING [D-A-D-G-B-E]
[after bongos or whatever that percussion instrument was]
1---------------
2---------------
3---------------
4---------------
5---------------
6--7h9-9--7h9-9-

repeat 4x until distortion begins
for this, i recommend a distortion pedal set to sound 
"sticky" or light distortion.. kinda fuzzy.
1-----------------xxx--xxx--19-19-19-
2-----------------xxx--xxx-----------
3-----------------xxx--xxx-----------
4-----------------xxx--xxx-----------
5--7h9-9--0-7h9-9-xxx--xxx-----------
6--7h9-9--0-7h9-9-xxx--xxx-----------

repeat that 4x until it gets heavier
at this point u should turn your distortion pedal
heavier, for a thicker distortion
1----------------xxx--xxx--19-19-19-
2----------------xxx--xxx-----------
3----------------xxx--xxx-----------
4--7h9-9--7h9-9--xxx--xxx-----------
5--7h9-9--7h9-9--xxx--xxx-----------
6--7h9-9--7h9-9--xxx--xxx-----------

repeat that 4x 
1--------------------------xxx--xxx
2--------------------------xxx--xxx
3--------------------------xxx--xxx
4--7s9-9-9-9-0--7s9-9-9-9--xxx--xxx
5--7s9-9-9-9-0--7s9-9-9-9--xxx--xxx
6--7s9-9-9-9-0--7s9-9-9-9--xxx--xxx

repeat that 3x n heres the lil bridgey thinger

1------------------------------------
2------------------------------------
3------------------------------------
4--7-7h9-9--7-7h9-9--7-7h9-9--7-7h9-9
5--7-7h9-9--7-7h9-9--7-7h9-9--7-7h9-9
6--7-7h9-9--7-7h9-9--7-7h9-9--7-7h9-9
[ Tab from: http://www.guitartabs.cc/tabs/i/incubus/clean_tab_ver_5.html ]
now this part i think uses tremolo.. im not sure..
if these chords are off, its cuz i dont have a 
tremolo pedal or effect on my amp or guitar so i had
to go by ear.. hey im 13, dont b*tch at me

1------------
2------------
3--9--9------
4--9----9----
5--7------7--
6------------

repeat that 2x
1-------------
2-------------
3--11--11-----
4--11-----11--
5--9---------9
6-------------

repeat that 2x also

chorus:

1---------------------------------------------------------------------------------------
2---------------------------------------------------------------------------------------
3---------------------------------------------------------------------------------------
4--7h9-9-9-9-9-9--0--7-7-7-7-7-7-5--7h9-9-9-9-9-9--0--xxx--7h9-9-9-9-9-9--7-5-5-5-5-5--0
5--7h9-9-9-9-9-9--0--7-7-7-7-7-7-5--7h9-9-9-9-9-9--0--xxx--7h9-9-9-9-9-9--7-5-5-5-5-5--0
6--7h9-9-9-9-9-9--0--7-7-7-7-7-7-5--7h9-9-9-9-9-9--0--xxx--7h9-9-9-9-9-9--7-5-5-5-5-5--0

repeat that 2x (i think.. if not 2 
then how many ever u need to)

interlude thing:

1-----------------------
2-----------------------
3-----------------------
4----------------------1
5-33-3--333-3-33-1-111--
6-----------------------

repeat that 2x
1---------------------------------------
2---------------------------------------
3---------------------------------------
4---------------------------------------
5---------------------------------------
6-66-6-666-666--55-5-555-555--33-3-333-3

now im gettin lazyn i think thats the end of the song so
here it is
clean, by incubus
transcribed by Brian, age 13 =] 

:: Ultimate Guitar Archive :: 
http://www.ultimate-guitar.com 



Comments