Incubus - Clean Chords & Tabs

 

Clean Chords & Tabs

Incubus Chords & Tabs

Version: 4 Type: Tab 0 ratings
1 star 2 stars 3 stars 4 stars 5 stars
comments

Clean Tab

Incubus
Clean 

Standard Tuning
Effects: Distortion, Tremolo, Wah

Notes in [brakets] are harmonics

Intro:
(start with drums)
now the intro gets louder and louder each time it is played till its 
full on distortion.
(light distortion)
e:-----------------
B:-----------------
G:-----------------
D:----------------- x4
A:--0h2-2-0-0h2-2--
E:-----------------

then
(with more distortion)
e:----------------------[7][7][7]--
B:---------------------------------
G:---------------------------------
D:--2/4-4-2-2/4-4--xxxx------------ x8
A:--0/2-2-0-0/2-2--xxxx------------
E:-----------------xxxx------------

then
(with even more distortion (and mabye a little chorus), and let notes 
ring)
e:-----------------00000000000000000--
B:-----------------5((grad.bend((())--
G:------------------------------------
D:--2/4-4-2-2/4-4--------------------- x4
A:--0/2-2-0-0/2-2---------------------
E:------------------------------------

then
(with just distortion)
e:-----------
B:-----------
G:-----------
D:--2/4-4-2--
A:--0/2-2-0--
E:-----------

thats the intro!

Verse:
(with tremolo)
e:-----------
B:--2~-2~----
G:--2~-------
D:--4~--4~---
A:--5~---5~--
E:-----------

then
e:--7~~-7~-----
B:--10~--10~---
G:--8~~----8~--
D:--9~~--------
A:-------------
E:-------------
[ Tab from: http://www.guitartabs.cc/tabs/i/incubus/clean_tab_ver_4.html ]
Pre-Chorus:
(letting the wah out slowly and then putting it back on quickly at the 
end)
    >>>>>>>>>>>>>>>>>>>>>>>>>>>>><<<< shows the wah 
e:--[7][7][7][7][7][7][7][7][7][7][7]--
B:-------------------------------------

Chorus:
e:------------------------------------------------------
B:------------------------------------------------------
G:--2/4-444-777-------------2/4-444/7-xxx-2/4-444-4-22--
D:--2/4-444-777-77-777-555--2/4-444/7-xxx-2/4-444-2-22--
A:--0/2-222-555-77-777-555--0/2-222/5-xxx-0/2-222---00--
E:--------------55-555-333------------xxx---------------

Post-Chorus:
Same as Pre-Chorus!

Interlude/Solo thingy:
(mabye distortion with mabye the wah all the way in)
e:-------------------------------------------
B:-------------------------------------------
G:-------------------------------------------
D:--------------------1-------------------1--
A:--33-3-333-3-3-11-1---33-3-333-3-3-11-1----
E:-------------------------------------------

continued
e:-------------------------------------------
B:-------------------------------------------
G:-------------------------------------------
D:-------------------------------------------
A:-----------------------------------11-1-1--
E:--44-4-444-4-4-33-3-3-11-1-111-1-1---------

then
play that part more with power chords

Chorus2:
Same as the first chorus but up one fret

Outro:
e:-----------------------------
B:-----------------------------
G:--3/5-5-3-3/5-5-3-3/5-5-5-8--
D:--3/5-5-3-3/5-5-3-3/5-5-5-8--
A:--1/3-3-1-1/3-3-1-1/3-3-3-6--
E:-----------------------------



Comments