Incubus - Clean Chords & Tabs

 

Clean Chords & Tabs

Incubus Chords & Tabs

Version: 1 Type: Tab 1 rating
1 star 2 stars 3 stars 4 stars 5 stars
comments

Clean Tab

Intro
e:---------------------|---------------------|
B:---------------------|---------------------|
G:---------------------|---------------------|
D:---------------------|---------------------|
A:-7/9--9-----7/9--9---|---------------------|
E:-5/7--7---0-5/7--7---|---------------------| x4

e:---------------------|------------|
B:---------------------|---------------------|
G:---------------------|---------------------|
D:-7/9--9-----7/9--9---|---------------------|
A:-7/9--9-----7/9--9---|---------------------|
E:-5/7--7---0-5/7--7---|---------------------| x4

e:---------------------|---------------------|
B:---------------------|-12------------------|
G:---------------------|-14b16---------------|
D:-7/9--9-----7/9--9---|---------------------|
A:-7/9--9-----7/9--9---|---------------------|
E:-5/7--7---0-5/7--7---|---------------------| x3
Bend the note slowly, wait till about beat 3 to match the pitch

e:---------------------|---------------------|
B:---------------------|---------------------|
G:---------------------|---------------------|
D:-7/9--9-----7/9--9---|-7/9--9-----7/9--9---|
A:-7/9--9-----7/9--9---|-7/9--9-----7/9--9---|
E:-5/7--7---0-5/7--7--0|-5/7--7---0-5/7--7---|

Verse
e:-------2-------|---------------|---------------|---------------|
B:-------2-------|---------------|-------2-------|---------------|
G:-------2-------|---------------|---------2-----|---------------|
D:-------0-------|---------------|-----------0---|---------------|
A:---------------|---------------|---------------|---------------|
E:---------------|---------------|---------------|---------------| x2

e:-------7-------|---------------|-------7-------|---------------|
B:-------10------|---------------|---------10----|---------------|
G:-------8-------|---------------|------------8--|---------------|
D:-------7-------|---------------|---------------|---------------|
A:---------------|---------------|---------------|---------------|
E:---------------|---------------|---------------|---------------| x2

Chorus
e:------------------|------------------|--------------------|-------------------|
B:------------------|------------------|--------------------|-------------------|
G:-4-4--4--/7-7--7--|-4-4--4--4-2-2--2-|-4-4--4--4/7--x-x-x-|-4-4--4--4-2-2--2--|
D:-4-4--4--/7-7--7--|-4-4--4--4-2-2--2-|-4-4--4--4/7--x-x-x-|-4-4--4--4-2-2--2--|
A:-2-2--2--/5-5--5--|-2-2--2--2-0-0--0-|-2-2--2--2/5--x-x-x-|-2-2--2--2-0-0--0--|
E:----------5-5--5--|------------------|--------------x-x-x-|-------------------|
[ Tab from: http://www.guitartabs.cc/tabs/i/incubus/clean_tab.html ]
e:-----------------|------------------|--------------------|-------------------|
B:-----------------|------------------|--------------------|-------------------|
G:-4-4--4--2-2--2--|------------------|-4-4--4--4/7--x-x-x-|-4-4--4--4-2-2--2--|
D:-4-4--4--2-2--2--|-5-5--5--5-3-3--3-|-4-4--4--4/7--x-x-x-|-4-4--4--4-2-2--2--|
A:-2-2--2--0-0--0--|-5-5--5--5-3-3--3-|-2-2--2--2/5--x-x-x-|-2-2--2--2-0-0--0--|
E:-----------------|-3-3--3--3-1-1--1-|--------------x-x-x-|-------------------|

Bridge
e:---------------------|---------------------|---------------------|---------------------|
B:---------------------|---------------------|---------------------|---------------------|
G:---------------------|---------------------|---------------------|---------------------|
D:-5-5--5--5-5-5--5--5-|-3-3--3--3-5-5--5--5-|-5-5--5--5-3-3--3--3-|---------------------|
A:-3-3--3--3-3-3--3--3-|-1-1--1--1-3-3--3--3-|-3-3--3--3-1-1--1--1-|-6-6--6--6-6-6--6--6-|
E:---------------------|---------------------|---------------------|-4-4--4--4-4-4--4--4-|

e:---------------------|---------------------|
B:---------------------|---------------------|
G:---------------------|---------------------|
D:---------------------|---------------------|
A:-5-5--5--5-3-3--3--3-|-3-3--3--3-3-3--3--3-|
E:-3-3--3--3-1-1--1--1-|-1-1--1--1-1-1--1--1-|

Last Chorus
e:------------------|------------------|--------------------|-------------------|
B:------------------|------------------|--------------------|-------------------|
G:-5-5--5--/8-8--8--|-5-5--5--5-3-3--3-|-5-5--5--5/8--x-x-x-|-5-5--5--5-3-3--3--|
D:-5-5--5--/8-8--8--|-5-5--5--5-3-3--3-|-5-5--5--5/8--x-x-x-|-5-5--5--5-3-3--3--|
A:-3-3--3--/6-6--6--|-3-3--3--3-1-1--1-|-3-3--3--3/6--x-x-x-|-3-3--3--3-1-1--1--|
E:----------6-6--6--|------------------|--------------x-x-x-|-------------------|

e:-----------------|------------------|--------------------|-------------------|
B:-----------------|------------------|--------------------|-------------------|
G:-5-5--5--3-3--3--|------------------|-5-5--5--5/8--x-x-x-|-5-5--5--5-3-3--3--|
D:-5-5--5--3-3--3--|-6-6--6--6-5-5--5-|-5-5--5--5/8--x-x-x-|-5-5--5--5-3-3--3--|
A:-3-3--3--1-1--1--|-6-6--6--6-5-5--5-|-3-3--3--3/6--x-x-x-|-3-3--3--3-1-1--1--|
E:-----------------|-4-4--4--4-3-3--3-|--------------x-x-x-|-------------------|

e:---------------------|-----------------|
B:---------------------|-----------------|
G:-3/5--5----3/5--5----|-3/5--5----5-----|
D:-3/5--5----3/5--5----|-3/5--5----5-----|
A:-1/3--3--0-1/3--3--0-|-1/3--3--0-3-----|
E:---------------------|-----------------|
Comments