Incubus - Clean Chords & Tabs

 

Clean Chords & Tabs

Incubus Chords & Tabs

Version: 2 Type: Bass Tab 0 ratings
1 star 2 stars 3 stars 4 stars 5 stars
comments

Clean Bass Tab

TABBER: Collin Scott [basskid7@hotmail.com]
BAND: Incubus
CD: Make Yourself
SONG: Clean

Intro
G-----------------------
D-----------------------
A--0-2-2----0-2-2-------
E-----------------------
B-----------------------

Verse
G-------------------------------------
D---------------------------0-----0h2-
A-0h2-0h2-0h2-------0h2-0h2---0h2-----
E-------------------------------------
B--------------3----------------------

Chorus
G-------------------------------------------------
D-----------------------------------------2-------
A--0-2-2-----0-0-0-------0-2-2------0-2-2---2-0-0-
E------------------3-3-3--------------------------
B--------3---------------------3xxx---------------
[ Tab from: http://www.guitartabs.cc/tabs/i/incubus/clean_btab_ver_2.html ]
Interlude
G-----------------------------
D---------------------------1-
A-3-3-3-3---3-3-3-3---3-1-1---
E-----------------------------
B-----------------------------

G---------------------------------------
D---------------------------------------
A---------------------------------------
E-6\--4-4-4---4-4-4--4-4\3-3--3-3\1-1---
B---------------------------------------
(Something like this, it's not too hard to figure out)

Ending Chorus
(It's just the normal chorus, but it's a half-step up and a slide up, 
so I figured I'd tab it anyway)

G----------------------------------------------------
D--------------------------------------------3-------
A--1-3-3/6\---1-1-1--------1-3-3/6\----1-3-3---3-1-1-
E-------------------4-4-4----------------------------
B----------------------------------------------------

I'm pretty sure that's all of it, if not, feel free to correct me!
Comments