Incubus - Clean Chords & Tabs

 

Clean Chords & Tabs

Incubus Chords & Tabs

Version: 1 Type: Bass Tab 0 ratings
1 star 2 stars 3 stars 4 stars 5 stars
comments

Clean Bass Tab

   
BAND: Incubus
SONG: Clean
TABLATURE: Bass
TABBED BY: Ryan Hegenauer (kingnothing5.28@juno.com)


Db,Gb,B,E

intro
Gb--3-5-5--x--3--5-5--:II

verse
B--------------------------3-----3-5--*II
Gb-3-5-3-5-3-5----3-5-3-5----3-5-------II
Db-------------0----------------------*II
[ Tab from: http://www.guitartabs.cc/tabs/i/incubus/clean_btab.html ]
chorus
Gb---3-5--5-5---3--3--3-3-----*II
Db------------1------------0--*II

INTERLUDE
B-----------------------4--------------
Gb-6-6-6--6-6-6--6-4-4---6-6-6--6-6-6--
Db-------------------------------------

B------------------------------4\--------------------------------------*II
Gb-6-6-6--x-6-6-6--6\4-4-4--4----2-2-2--x2-2-2--2-2\1-1--1-1\----4-4-4--II
Db-----------------------------------------------------------3-3/------*II
Comments