Incubus - Circles Chords & Tabs

 

Circles Chords & Tabs

Incubus Chords & Tabs

Version: 4 Type: Tab 0 ratings
1 star 2 stars 3 stars 4 stars 5 stars
comments

Circles Tab

Incubus - Circles.
 Tabbed by Nick, Nick_Ohlson@hotmail.com.
  
Artist: Incubus
Title: Circles
Album: Morning View
Transcribed by: Nick Ohlson
Email: Nick_Ohlson@Hotmail.com

Intro: Distortion-Volume at 7 - Thats on a Strat,
                  You have to find guitars \"Sweet Spot\"                 
e|------------------------------
B|------------------------------
G|-------------------5-5-5------
D|-------------------5-5-5------ X3
A|-----5------5------3-3-3------
D|-0-3----0-3---3-0--5-5-5------

e|------------------------------
B|------------------------------
G|------------------------------
D|-------------------3/5-5-5-5--
A|-------------------3/5-5-5-5--
D|-0-5-8--0-5-8--3-0-3/5-5-5-5--

Turn Volume up all the way, so you get all of Distortion

Intro x2

Fill 1:
e|----------------------------------
B|----------------------------------
G|------------5------------------5--
D|-0-0--0-0---5--0-0--0-0--0-0---5--
A|-0-0--0-0---3--0-0--0-0--0-0---3--
D|-0-0--0-0------0-0--0-0--0-0------

Verse: Volume at 7
e|--------------------------------------------------------
B|--------------------------------------------------------
G|-7-7--7-7---5---7--7-7--5--5-5-5------------------------
D|-x-x--x-x---x---x--x-x--x--x-x-x---5-5-5--6-6-6--3-3-3-- X4
A|-5-5--5-5---3---5--5-5--3--3-3-3---5-5-5--6-6-6--3-3-3--
D|-----------------------------------5-5-5--6-6-6--3-3-3--

Turn Volume up

Pre Chorus: 
e|-------------------
B|-------------------
G|--------5-5-5-5-5--
D|-1---1--3-3-3-3-3-- X4
A|-1---1--3-3-3-3-3--
D|-1---1-------------
[ Tab from: http://www.guitartabs.cc/tabs/i/incubus/circles_tab_ver_4.html ]
Chorus:                            
e|-----------------------------------
B|-----------------------------------
G|-7-7b--7b-7b--7-7b-7b--7-7--5-5-5--
D|-x-x---x--x---x-x--x---x-x--x-x-x-- X3
A|-5-5b--5b-5b--5-5b-5b--5-5--3-3-3--
D|-----------------------------------
 
e|----------------------------------
B|----------------------------------
G|----------------------------------
D|-0-3-3-3-3-3-8-8-8-8-8-8-8-8-8---- 
A|-0-3-3-3-3-3-8-8-8-8-8-8-8-8-8----
D|-0-3-3-3-3-3-8-8-8-8-8-8-8-8-8----

e|-----------------------------------
B|-----------------------------------
G|-7-7b--7b-7b--7-7b-7b--7-7--5-5-5--
D|-x-x---x--x---x-x--x---x-x--x-x-x-- X3
A|-5-5b--5b-5b--5-5b-5b--5-5--3-3-3--
D|-----------------------------------
 
e|----------------------------------
B|----------------------------------
G|----------------------------------
D|-0-3-3-3-3-3-8-8-8-8-8-8-8-8-8---- 
A|-0-3-3-3-3-3-8-8-8-8-8-8-8-8-8----
D|-0-3-3-3-3-3-8-8-8-8-8-8-8-8-8----

Verse: X4

Pre Chorus: X4

Chorus: X2

Breakdown: Turn Volume, so there's little distortion
e|-----------------|----------------------
B|-----------------|----------------------
G|-----------------|----------------------
D|-5-----0-----8---|-5-----0-----8-----1-- X5
A|-5-----0-----8---|-5-----0-----8-----1--
D|-5-----0-----8---|-5-----0-----8-----1--
                            
Last Breakdown:                                
e|-----------------|-----------------------
B|-----------------|-----------------------
G|-----------------|-----------------------
D|-5-----0----8----|-5-----0-----8---------
A|-5-----0----8----|-5-----0-----8---------
D|-5-----0----8----|-5-----0-----8---------

Pre Chorus: X4

Chorus: X2
                         
Intro:

Fill: X2 
:: Ultimate Guitar Archive :: 
http://www.ultimate-guitar.com 



Comments