Incubus - Circles Chords & Tabs

 

Circles Chords & Tabs

Incubus Chords & Tabs

Version: 3 Type: Tab 0 ratings
1 star 2 stars 3 stars 4 stars 5 stars
comments

Circles Tab

   
#----------------------------------PLEASE NOTE---------------------------------#
#This file is the author's own work and represents their interpretation of the #
#song. You may only use this file for private study, scholarship, or research. #
#------------------------------------------------------------------------------##

Artist: Incubus
Title: Circles
Album: Morning View
Release Date: October 23, 2001
Guitarist: Mike Einziger
Tab Author: Dirk Lithium
Contact Info...
E-Mail: stridersquall@hotmail.com | ICQ#: 33312210

Tuning: Dropped D [D A D G B E]
(Instructions: Drop top string down 2 steps, E -> D)
Effects: The whole song is basically full distortion,
except for the bridge which is clean.

Intro
E|----------------------
B|----------------------
G|-----------------5555-
D|-----------------5555- repeat 3 times
A|-----5-----5-----3333-
D|-0-3---0-3---3-0------

E|----------------------
B|----------------------
G|----------------------
D|-----------------3555-
A|-----1-----1-----3555-
D|-0-3---0-3---3-0-3555-
Repeat Intro twice.

Pre-Verse
E|---------------
B|---------------
G|---------------
D|-------------5- repeat twice
A|-00-x-00-x-0-3-
D|-00-x-00-x-0---

Verse
E|-----------------------------------------------------
B|-----------------------------------------------------
G|-77--77--55-77--77--55-10-10-10-555------------------
D|-77--77--55-77--77--55-10-10-10-555------------------
A|-55--55--33-55--55--33-8--8--8--333-666-333----------
D|------------------------------------666-333----------
Repeat 4 times
[ Tab from: http://www.guitartabs.cc/tabs/i/incubus/circles_tab_ver_3.html ]
Pre-Chorus
E|-------------------------------------------------------------------
B|-------------------------------------------------------------------
G|-------55555--------55555--------55555-------55555555--------------
D|-1--1--555550-1--1--555550-1--1--555550-1--1-55555555--------------
A|-1--1--333330-1--1--333330-1--1--333330-1--1-33333333--------------
D|-1--1-------0-1--1-------0-1--1-------0-1--1-----------------------

Chorus
"Hey________
E|-------------------------------------------------------------------
B|-------------------------------------------------------------------
G|-------------------------------------------------------------------
D|-77--777--777--55-55-77--777--777--55-55-77--777--777--55-55-------
A|-55--555--555--33-33-55--555--555--33-33-55--555--555--33-33-------
D|-------------------------------------------------------------------

E|------------------
B|------------------
G|------------------
D|-3--3-3-3-88-8-88-
A|-3--3-3-3-88-8-88-
D|-3--3-3-3-88-8-88-
Repeat twice.

Pre-Chorus 

Chorus 2 "Hey______________

Bridge
"Round and round we go..."
E|------------------------------
B|------------------------------
G|------------------------------
D|---------3--------------3----- repeat four times
A|-5---4---1------5---4---1---3-
D|-5---4----------5---4-------3-

Pre-Chorus 3
Chorus 3
End "Round and round and round and ROUND!"
End with intro riffs (Intro and Pre-Verse)


Song Setup:
Intro
Pre-Verse
Verse 1
Pre-Chorus 1
Chorus 1
Verse 2
Pre-Chorus 2
Chorus 2
Bridge
Pre-Chorus 3
Chorus 3
End (Intro Riffs: Intro [once] and Pre-Verse [once])

End:
Round and round and round and ROUND!


Comments:
Another amazing sonf from Incubus' new album, Morning View.
This is a fun song to play, not really that repetitive so
it doesn't get very boring. Personally, I really think the
lyrics are the coolest part of the song but that's just me :)
Anyways, just remember to BUY THE CD WHEN IT COMES OUT!! =p
If you have any questions, comments, death threats, love letters, or
corrections, just contact me using one of the above methods.
Thank you, drive through.
Dirk (:09- 22 -01:)
Comments