Incubus - Circles Chords & Tabs

 

Circles Chords & Tabs

Incubus Chords & Tabs

Version: 2 Type: Tab 0 ratings
1 star 2 stars 3 stars 4 stars 5 stars
comments

Circles Tab

Artist: Incubus
Title: Circles
Album: Morning View
Transcribed by: Ben Feiner
Email: overthestairs6@hotmail.com

it's in drop d
intro:screw with the volume knob then this
|--------------------------------------------------------------------------
|-------------------------|----------------------------------------------------
|------------------5-5-5-5|---|-----------------3/5-5|---|------------------------------
|------------------5-5-5-5|-x3|-----------------3/5-5|-x1|------x2----------------------
|-----5-----5------3-3-3-3|---|-----1-----1-----1/3-3|---|------------------------------
|-0-3---0-3---3-0---------------0-3---0-3---3-0---------------------------

|------------------------------------------------------------------------------|
|------------------------------------------------------------------------------|
|-----------------------------00-00-10---9-9-9--7-7-7--5-5-5--3-3-3------------|
|-00-00-10---00-00-00-10------00-00-10---9-9-9--7-7-7--5-5-5--3-3-3------------|
|-00-00-10---00-00-00-10--then00-00-10---7-7-7--5-5-5--3-3-3--1-1-1------------|
|-00-00-10---00-00-00-10-------------------------------------------------------|
[ Tab from: http://www.guitartabs.cc/tabs/i/incubus/circles_tab_ver_2.html ]
pre chorus:
|-------------------------------------------------------------------------------|
|-------------------------------------------------------------------------------|
|-------------------------------------------------------------------------------|
|---6--6----55-333-5--6--6------------------------------------------------------|
|---6--6----55-333-5--6--6------------------------------------------------------|
|---6--6----55-333-5--6--6------------------------------------------------------|


Chorus:
|---------------------|--|---------------------------------------------|
|---------------------|--|---------------------------------------------|
|--7b--7b--7b--7-5-5--|--|-then----------------------------------------|
|--x---x---x---x-x-x--|x3|--3-3-3-3-/-6-6-6-6--------------------------|
|--5b--5b--5b--5-3-3--|--|--3-3-3-3-/-6-6-6-6--------------------------|
|---------------------|--|--3-3-3-3-/-6-6-6-6--------------------------|

play the intro once more before the outro...which is this:

|---------------------------------------------------------------------|
|---------------------------------------------------------------------|
|---------------------------------------------------------------------|
|-00-00-10---00-00-10---00-00-10--------------------------------------|
|-00-00-10---00-00-10---00-00-10--------------------------------------|
|-00-00-10---00-00-10---00-00-10--------------------------------------|

that's pretty much it for a great song from incubus...not too hard
Comments