Incubus - Circles Chords & Tabs

 

Circles Chords & Tabs

Incubus Chords & Tabs

Version: 1 Type: Tab 0 ratings
1 star 2 stars 3 stars 4 stars 5 stars
comments

Circles Tab

   
“Circles”
Incubus-Morning View
Tabbed by Neal Petrosky (petro525@aol.com)

Drop D
Intro
E--------------------------------------------------------------
B--------------------------------------------------------------
G--------------------------------------------------------------
D-^---^---^------^-^-^-^---------------------------------------
A-0------------------------------------------------------------
D-0------------------------------------------------------------
^=volume swell (listen to the song)
(and outro)
E------------------------------
B------------------------------
G----------------------5-5-5-5-
D----------------------5-5-5-5- x3
A-------5--------5-----3-3-3-3-
D-0--3-----0--3----3-0-5-5-5-5-


E------------------------------
B------------------------------
G------------------------------
D----------------------3h5-5-5- 
A-------1--------1-----3h5-5-5-
D-0--3-----0--3----3-0-3h5-5-5-
[ Tab from: http://www.guitartabs.cc/tabs/i/incubus/circles_tab.html ]
E--------------------------------------
B--------------------------------------
G-------------5---------------------5--
D-------------5---------------------5--
A-0-0-x-0-0-x-3---0-0-x-0-0-x-0-0-x-3--
D-0-0-x-0-0-x-----0-0-x-0-0-x-0-0-x----

Verse
E----------------
B----------------
G-7-7-x-7-7-/-17-
D---------------- x2
A-5-5-x-5-5-/-15-
D----------------

E----------------------
B----------------------
G-15-15-12-12-8-8-5-5--
D----------------------
A-17-17-10-10-6-6-3-3--
D----------------------

E---------------------
B---------------------
G----------5-5-5-5----
D-1--1-----5-5-5-5---- x4
A-1--1-0-0-3-3-3-3-0--
D-1--1-0-0-5-5-5-5-0--

Chorus
E---------------------------
B---------------------------
G-7-7b-7-7b-7-7b-7-7b-5-5-5-
D--------------------------- x2
A-5-5b-5-5b-5-5b-5-5b-3-3-3-
D-0----0----0----0----------

E------------------
B------------------
G------------------
D-3-3--3-/-8-8-8-8-
A-3-3--3-/-8-8-8-8-
D-3-3--3-/-8-8-8-8-

Bridge
E----------10(---------------
B----------10)---------------
G----------10(---------------
D-5--0--3--------5--0--3--1--
A-5--0--3--------5--0--3--1--
D-5--0--3--------5--0--3--1--
Comments