Incubus - Circles Chords & Tabs

 

Circles Chords & Tabs

Incubus Chords & Tabs

Version: 1 Type: Bass Tab 0 ratings
1 star 2 stars 3 stars 4 stars 5 stars
comments

Circles Bass Tab

   
Artist: Incubus
Song: Circles
CD: Morning View

intro   3 times              thenn
G||---------------------------|--------------------------|
D||---------------------------|--------------------------|
A||-----5-----5-----3-3-3-3---|-----1-----1--------------|
D||-0-3---0-3---3-0-----------|-0-3---0-3----0/3/5-5-5-5-|	
[ Tab from: http://www.guitartabs.cc/tabs/i/incubus/circles_btab.html ]
Verse
   do for however many time needed   then goto 
G||--------------------------------------|--------------------------|
D||--------------------------------------|--------------------------|
A||--------------------------------------|-----------3-3-3-3-3-3----|
D||-0-0- 12/-0-0-12/-15-15-10-10-6-6-3-3-|-1-1-1-1h3----------------|

Chorus

G||------------------------------------------------|
D||---------------(do this as many times as needed)|
A||--5-5-5-5-5-5-5-5-3-3-5-5-5-5-5-5-5-5-3-3-------|
D||------------------------------------------------|


G||-------------------|
D||-------------------|
A||-------------------|  just keep repeating untill verse again.
D||3-3-3-3-3/8-8-8-8-8|

Breakdown thing
G||-------------------|
D||-------------------|
A||---5--1--r---5--1--| repeat for however many times...
D||-5---------5------1|

Comments