Incubus - Certain Shade Of Green Chords & Tabs

 

Certain Shade Of Green Chords & Tabs

Incubus Chords & Tabs

Version: 4 Type: Tab 0 ratings
1 star 2 stars 3 stars 4 stars 5 stars
comments

Certain Shade Of Green Tab

   
A certain shade of green - Incubus

Intro/chorus
-------------------------------------|
-------------------------------------|
-7-7-7-7--7-7-7-7--8-8-8-8--7-7-7-7--|
-7-7-7-7--7-7-7-7--8-8-8-8--7-7-7-7--|
-5-5-5-5--5-5-5-5--6-6-6-6--5-5-5-5--|
-------------------------------------|

-------------------------------------|
-------------------------------------|
-10-8-7--4-4-4-4--4-4-4-4--4-4-4-4---|
-10-8-7--4-4-4-4--4-4-4-4--4-4-4-4---|
--8-6-5--2-2-2-2--2-2-2-2--2-2-2-2---|
-------------------------------------|

------------------|
------------------|
-3-X-3-X-3-X-3-X--|
-3-X-3-X-3-X-3-X--|
-1-X-1-X-1-X-1-X--|
------------------|
[ Tab from: http://www.guitartabs.cc/tabs/i/incubus/certain_shade_of_green_tab_ver_4.html ]
verse riff (played every other measure during verse)
---------------|
---------------|
---------------|
----------4-5--|
-2-2-2----4-5--|
-0-0-0--3---3--|
p.m.--|


solo                               4x
-12-X-12-X-12-X-12-X-12-12-12-12--|
-12-X-12-X-12-X-12-X-12-12-12-12--|
----------------------------------|
----------------------------------|
----------------------------------|
----------------------------------|

(speed-picking)           4x
-0-12-0-12-13-0-12-0-5-6----|
----------------------------|
----------------------------|
----------------------------|
----------------------------|
----------------------------|

the order is:
Riff A
Riff B
Riff A
Riff B
Riff A
then the solo riff
and finally Riff A again
Comments