Incubus - Certain Shade Of Green Chords & Tabs

 

Certain Shade Of Green Chords & Tabs

Incubus Chords & Tabs

Version: 2 Type: Tab 0 ratings
1 star 2 stars 3 stars 4 stars 5 stars
comments

Certain Shade Of Green Tab

Certain Shade Of Green - Incubus
--------------------------------

Transcribed By Kenny Luong (commie@ratm.org)
http://www.hex-tab.base.org

Intro/Chorus/Outro
//////////////////

E|--------------------------------------------------------|
B|--------------------------------------------------------|
G|--7777-7777-8888-7777-7-10-8----------------------------|
D|--7777-7777-8888-7777-7-10-8--9999-9999-99-88-88-88-88--|
A|--5555-5555-6666-5555-5--8-6--9999-9999-99-88-88-88-88--|
E|------------------------------7777-7777-77-66-66-66-66--|

Verse
/////

E|--------------|-----|
B|--------------|-----| 
G|--------------|--9--|
D|--------7-----|-----|
A|--2--5--5--9--|-----|
E|--0--3-----7--|-----|
    
                  *** Play this note with volume swell and vibrato
Bridge
//////

gtr 1
[ Tab from: http://www.guitartabs.cc/tabs/i/incubus/certain_shade_of_green_tab_ver_2.html ]
E|-------------------------------------|
B|--17-x-17-x-17-171717-17-x-17171717--|
G|--16-x-16-x-16-161616-16-x-16161616--|
D|--17-x-17-x-17-171717-17-x-17171717--|
A|-------------------------------------|
E|-------------------------------------|

gtr 2

E|-------------------------------------|
B|-------------------------------------| ** only on last bar
G|-------------------------------------|
D|-----------------------14~~~~~~~~~~--|
A|-------------------------------------|
E|-------------------------------------|

E|---------------------------------------------|
B|---------171717--------17/1818---------------|
G|---------------------------------------------|
D|--141414--------141414---------141414-14-15--|
A|---------------------------------------------|
E|---------------------------------------------|

E|---------------|
B|---------------|
G|---------------|
D|--88-88-88-88--|
A|--88-88-88-88--|
E|--66-66-66-66--|
Comments