Incubus - Calgone Chords & Tabs

 

Calgone Chords & Tabs

Incubus Chords & Tabs

Version: 1 Type: Bass Tab 0 ratings
1 star 2 stars 3 stars 4 stars 5 stars
comments

Calgone Bass Tab

   
Song: Calgone
Artist: Incubus
Album: S.C.I.E.N.C.E.
Tabbed by Spooney (spoonbass@users.basstabarchive.com)

This song is pretty simple, but I tabbed it just in case.

Intro 
G|-6-----6-----6-----6-------7-----7-----7-----7------|
D|---7-----7-----7-----7-------8-----8-----8-----8----|
A|-----7-----7-----7-----7-------8-----8-----8-----8--|
E|----------------------------------------------------|

First main riff
G|-----|------------------------------|
D|-----|------------------------------|
A|-----|-------3--------------3-------|
E|-12\-|-0-0-2---2-0-2--0-0-2---2-0-2-|

First riff variations
G|-----------------|----------------|
D|-----------------|----------------|
A|---------3-------|-------3--------|
E|-0-000-2---2-0-2-|-0-0-2---2-0-2/-|

Second main riff
G|---------------|
D|---------------|
A|---------------|
E|-0-2h3h4-3p2-3-|
[ Tab from: http://www.guitartabs.cc/tabs/i/incubus/calgone_btab.html ]
Break
G|---------------------------------------------|
D|-------------------------------------9-----9-|
A|---------------------------------------------|
E|-6-----6-----6-----6-----6-----6-----7-----7-|

Chorus			  Variation
G|-----------------------|-----------------------|
D|-----------------------|-----------------------|
A|-2---------0--2--------|-2---------0h22--------|
E|----2-333--------2-3-2-|----2-3-3--------2-3-2-|

After chorus, play:
G|-------------------------------|---------------|
D|-------------------------------|---------------|
A|-------------------------------|---------------|
E|-----3-----3-----3-----3---12\-|-0-2h3h4-3p2-3-|

Play through riffs in order to finish the song, and you're done!
If you were expecting all the 'secret' stuff on this attempt, sorry to
disappoint.
However, I am currently working on tabbing the cool parts, and will get them
posted
as 'Segue 1', I think it's called. If you know any different, or even have
parts done
yourself, mail me.

Comments