Incubus - Blood On The Ground Chords & Tabs

 

Blood On The Ground Chords & Tabs

Incubus Chords & Tabs

Version: 1 Type: Bass Tab 0 ratings
1 star 2 stars 3 stars 4 stars 5 stars
comments

Blood On The Ground Bass Tab

   
BAND: INCUBUS
SONG: BLOOD ON THE GROUND
ALBUM: MORNING VIEW 
TRACK#: 6
TABBED BY THE PHREEK
STANDARD TUNING APPLIES (B,E,A,D,G)

INTRO/CHORUS:
                      3X                 1X 
G|----------------------|------------------|
D|----------------------|------------------|
A|:-----------2-2------:|------------------|
E|-----------------1-1--|--3333--3-1-1111--|
B|--3-3--3-3------------|------------------|VERSE 2:                                                    5X
G|------------|----------------|--------------|--------------|
D|------------|----------------|--------------|--------------|
A|------------|-----------8-8--|:-5\----------|---------8-8-:|
E|------------|----------------|--------------|--------------|
B|------------|----------------|--------------|--------------|

[ Tab from: http://www.guitartabs.cc/tabs/i/incubus/blood_on_the_ground_btab.html ]
VERSE 3:
                  2X                 2X 
G|------------------|------------------|
D|------------------|------------------|
A|:5-------3-------:|:5555----3333----:|
E|-----5-------1----|-----5555----1111-|
B|------------------|------------------|


CHORUS INTRO:
G|-------------|--------|
D|-------------|--------|
A|-222---------|--------|
E|-----333-1---|------1-|
B|-------------|--------|


BRIDGE:
                                                                         2X    
G|---------|--------|--------|--------|--------|--------|--------|---------|
A|---------|--------|--------|--------|--------|--------|-5----5-|-5555----|
B|:--------|--------|--------|--------|--------|------35|--------|-----53-:|
D|---------|--------|--------|--------|3-----3-|----35--|--------|-------5-|
E|-3-----3-|----3---|3-----3-|----3---|--------|--------|--------|---------|


the order is really easy to figure out for this song.  just listen to it a few times and
you should get it.  send any questions/comments to bassphreek@hotmail.com.
Comments