Incubus - Beware Criminal Chords & Tabs

 

Beware Criminal Chords & Tabs

Incubus Chords & Tabs

Version: 2 Type: Tab 0 ratings
1 star 2 stars 3 stars 4 stars 5 stars
comments

Beware Criminal Tab

   
Incubus
A Crow Left of the Murder
Beware! Criminal


Intro x4
E-----|------------------
B-----|-7--7-7-----------
G-X-b6|----------b6-6-xb6
D-X-b6|---4-4--4-b4-6-xb6
A-----|-------------4----
E-----|------------------


Verse x8            End of 4th and 8th time
E------------------|-------------
B-7--7-7-----------|-------------
G----------b6-6-xb6|-6666-22-----
D---4-4--4-b4-6-xb6|-6666-22-77-2
A-------------4----|-4444-00-77-2
E------------------|---------55-0

Chorus 
  You came....
E--------------------------------------
B----------6-666666--------------------
G-2-222222-x-xxxxxx--------------------
D-2-222222-3-333333-4x4x444--3x333-2222
A-0-000000----------4x4x444--3x333-2222
E-------------------2x2x2220-1x111-0000
[ Tab from: http://www.guitartabs.cc/tabs/i/incubus/beware_criminal_tab_ver_2.html ]
E--------------------------------------
B----------6-666666--------------------
G-2-222222-x-xxxxxx--------------------
D-2-222222-3-333333-4-444444-3333-2222-
A-0-000000----------4-444444-3333-2222-
E-------------------2-222222-1111-0000-
        Yea im down...
E--------------------------------------
B-------------------6-666666-----------
G-2-222222----------x-xxxxxx-----------
D-2-222222-6-666666-3-333333-4444-3333-
A-0-000000-4-444444----------4444-3333-
E----------4-444444----------2222-1111-
  	  Hey all  Beware...Criminal
E-----0-----------|----------------
B-----6-6-6666666-|--------^5-^5-^5
G-222---x-xxxxxxx-|----------------
D-222---3-3333333-|-2--------------
A-000-------------|-2--------------
E-----------------|-0--------------

Verse

Chorus

Interlude
E-----------------------------
B-----------------------------
G-----------------------------
D-----------------------------
A-----4-----4-2-----4-----4-7-
E-2-2---0-0-----2-2---0-0-----

E-----------------------------
B-----------------------------
G-----------------------------
D-4-4-------------------------
A-----4--7-7--4------4-----4-2
E--------0-0-----2-2---0-0----

Last Chorus
E-----------------------------------
B-------2--------7------------------
G-----2--------6-------3---------2--
D---2--------4-------4---4-----3---3
A-0--------0-----------------3------
E--------0---------2-------1--------

Strum slowly
E--------------------------------
B-2-----2-7-----7----------------
G-2---2---6---6------------------
D-2-2-----4-4-----4x4x4x4-3x3x2x2
A-0-------0-------4x4x4x4-3x3x2x2
E-----------------2x2x2x2-1x1x0x0

 Yea im down...
E--------------------------------------
B-------------------6-666666-----------
G-2-222222----------x-xxxxxx-----------
D-2-222222-6-666666-3-333333-4444-3333-
A-0-000000-4-444444----------4444-3333-
E----------4-444444----------2222-1111-
  	  Hey all  Beware...Criminal
E-----0-----------|----------------
B-----6-6-6666666-|--------^5-^5-^5
G-222---x-xxxxxxx-|----------------
D-222---3-3333333-|-2--------------
A-000-------------|-2--------------
E-----------------|-0--------------

If you have any corrections please post
Comments