Incubus - Beware Criminal Chords & Tabs

 

Beware Criminal Chords & Tabs

Incubus Chords & Tabs

Version: 1 Type: Bass Tab 0 ratings
1 star 2 stars 3 stars 4 stars 5 stars
comments

Beware Criminal Bass Tab

   
Band- Incubus
Song- Beware Criminal

Intro

G ----------|
D ----------|
A -4-4-4----| x2
E -------0--|

G ---------|
D ---------|
A -0-0-0---|
E -------0-|

Verse x2

G ---------|
D ---------|
A -4-4-4---|
E -------0-|

G ---------|
D ---------|
A -0-0-0---|
E -------0-|

Variation

G ---------|
D ---------|
A -4-4-4---|
E -------0-|

G -----------------------|
D -2-4-------------------|
A -----2-4-----------2---|
E ---------2-4-0-0-0---2-|

Verse

G ---------|
D ---------|
A -4-4-4---|
E -------0-|

G ---------|
D ---------|
A -0-0-0---|
E -------0-|

Variation

G ---------|
D ---------|
A -4-4-4---|
E -------0-|

G ---------------|
D -2-4-----------|
A -----2-4-------|
E ---------2-4-0-|

Chorus (vary repetition to groove)

G ------------------|
D ------------------|
A -0-0-0-0--4-4-4-4-|
E ------------------|

G ---------------------------|
D ---------------------------|
A ---------------------------|
E -2-0-2-0-2-2-0-1-0-1-0-1-1-|

G --------------------------------|
D --------------------------------|
A -0-0-0-0--4-4-4-4---------------|
E ------------------2-2-2-2-22-00-|

G -------------------------|
D -------------------------|
A -0-0-0-0---------4-4-4-4-|
E ---------4-4-4-4---------|

G --------------1-2-1--------11-9-------|
D -------0-2-4--------2--0--------9-8---|
A -0-2-4-------------------2------------|
E ------------------------------------0-|

Verse

G ---------|
D ---------|
A -4-4-4---|
E -------0-|

G ---------|
D ---------|
A -0-0-0---|
E -------0-|

Variation

G ---------|
D ---------|
A -4-4-4---|
E -------0-|

G ---------------|
D -2-4-----------|
A -----2-4-------|
E ---------2-4-0-|

Verse

G ---------|
D ---------|
A -4-4-4---|
E -------0-|
[ Tab from: http://www.guitartabs.cc/tabs/i/incubus/beware_criminal_btab.html ]
G ---------|
D ---------|
A -0-0-0---|
E -------0-|

Variation


G ---------------|
D -2-4-----------|
A -----2-4-------|
E ---------2-4-0-|

Verse

G ---------|
D ---------|
A -4-4-4---|
E -------0-|

G ---------|
D ---------|
A -0-0-0---|
E -------0-|

Variation

G ---------|
D ---------|
A -4-4-4---|
E -------0-|

G ---------------|
D -2-4-----------|
A -----2-4-------|
E ---------2-4-0-|

Chorus into Interlude

G ------------------|
D ------------------|
A -0-0-0-0--4-4-4-4-| (vary repetition to groove)
E ------------------|

G ---------------------------|
D ---------------------------|
A ---------------------------|
E -2-0-2-0-2-2-0-1-0-1-0-1-1-|

G ---------------------------------|
D -------------------4-4-4-4-33-22-|
A -0-0-0-0--4-4-4-4----------------|
E ---------------------------------|

G -------------------------|
D -------------------------|
A -0-0-0-0---------4-4-4-4-|
E ---------4-4-4-4---------|

G --------------1-2-1--------11-9-----|
D -------0-2-4--------2--0--------9-8-|
A -0-2-4-------------------2----------|
E ------------------------------------|

G ---------3-4-6-9-11-9-----|
D -4-2------------------9-8-|
A -----2-1------------------|
E --------------------------|

G ---------------|
D -2h4-2-2-------|
A ---------1 x24-|
E ---------------|

Outro

G ---------|
D ---------|
A -0-04-4--|
E -------0-|

G -----------------|
D -----------------|
A -----------------|
E -2-2-2-2-0-0-0-0-|

G -------------------------|
D -------------------------|
A -0-0-0-0---------4-4-4-4-|
E ---------4-4-4-4---------|

G --------------1-2-1--------11-9-------------|
D -------0-2-4--------2--0--------9-8---------|
A -0-2-4-------------------2------------------|
E ------------------------------------2-2-2-0-|
Comments