Incubus - Are You In Chords & Tabs

 

Are You In Chords & Tabs

Incubus Chords & Tabs

Version: 6 Type: Tab 0 ratings
1 star 2 stars 3 stars 4 stars 5 stars
comments

Are You In Tab

-----------------------------------------------------------------------------
			     Are You In? - Incubus
-----------------------------------------------------------------------------
Tabbed by:TheJoeyH Show
Email:AlabamaFan34@yahoo.com

Tuning:Standard

Ok this is totally correct to my knowledge ...

Intro
e|-12----------12---5-----------------------|
B|-10----------10---2----8------------------|
G|-11----------11---------------------------|
D|-12----------12---------------------------|
A|------------------------------------------|
E|------------------------------------------|
[ Tab from: http://www.guitartabs.cc/tabs/i/incubus/are_you_in_tab_ver_6.html ]
e|-12-12---9---9---5---4--2-------12--|
B|-10-10---7---7---2---2--2---5---10--|
G|-11-11--------------------------11--|
D|-12-12--------------------------12--|
A|------------------------------------|
E|------------------------------------|

e|-------------12----------------------12------12-----|
B|--------12-----------------------12-----------------|
G|----------------------------------------------------| <--This last little 
D|----7-------------9------------7---------9----------|    riff is played
A|-7---------------------------7----------------------|    twice
E|----------------------------------------------------|
Comments