Incubus - Are You In Chords & Tabs

 

Are You In Chords & Tabs

Incubus Chords & Tabs

Version: 5 Type: Tab 0 ratings
1 star 2 stars 3 stars 4 stars 5 stars
comments

Are You In Tab

Song: Are You In
Artist: Incubus
Tabbed by: jps19

*to all of us without bass guitars!!! rock on!!!!
this is 100 frickin % accurate!!!!!
[ Tab from: http://www.guitartabs.cc/tabs/i/incubus/are_you_in_tab_ver_5.html ]
E|------------------------------------------------|
B|------------------------------------------------|
D|-2h4p2------------------------------------------|
G|-------4p2--------------------------------------|
A|----------*5--5p2-0-----------------00h2p0-----|
E|---------------------0h1-2--0-2p0-2-------------|

E|---------------------------------------------|
B|---------------------------------------------|
D|---------------------------------------------|
G|-55p2-0-------------------------------------|
A|-----------------2-2-00h2p0-----------------|(repeat *)
E|----------0h1-2------------------------------|
Comments