Incubus - Are You In Chords & Tabs

 

Are You In Chords & Tabs

Incubus Chords & Tabs

Version: 4 Type: Tab 0 ratings
1 star 2 stars 3 stars 4 stars 5 stars
comments

Are You In Tab

By: Incubus
Song:Are You In?
Album: Morning View
Transcribed by: Josh Lead
Tuning: Standard (EADGBe)
e|-----------------------------------------------------
B|-----------------------------------------------------
G|-----------------------------------------------------
D|-----7-11b-r9-----7-11b-r9-7------------------7-9p7h9
A|-7h9----------7h9------------9-7--------7h9p7--------
E|---------------------------------7h9p7---------------

e|-----------------12-------------------------------
B|------10---12b14----14r12-10----------------------
G|-9h11---------------------------------------------
D|--------------------------------------------------
A|--------------------------------------------------
E|--------------------------------------------------

This is right 
Laterz
[ Tab from: http://www.guitartabs.cc/tabs/i/incubus/are_you_in_tab_ver_4.html ]
Comments