Incubus - Are You In Chords & Tabs

 

Are You In Chords & Tabs

Incubus Chords & Tabs

Version: 3 Type: Tab 0 ratings
1 star 2 stars 3 stars 4 stars 5 stars
comments

Are You In Tab

Incubus
Are You In?

Tabbed by Andres (www.geocities.com/clubtabz)


This is a cool song!
Verse and Chorus with effect.

VERSE
E-------------12--14---------------------
B-----10--12-----------------------------
G--9-------------------------------------
D----------------------------------------
A----------------------------------------
E----------------------------------------

CHORUS
E--12----14------------------------------
B--10----14----10------------------------
G--------------11------------------------
D----------------------------------------
A----------------------------------------
E----------------------------------------
[ Tab from: http://www.guitartabs.cc/tabs/i/incubus/are_you_in_tab_ver_3.html ]
SOLO
E------------------------------------------------------------------------
B---------------------------------------10-------------------------------
G------------------------------------------------------------------------
D-------7---9b11---11r9--------7-----9b11----11r9--7--9b11--9---7h9------
A--7h9-------------------7--9--------------------------------------------
E------------------------------------------------------------------------

E---------------------------------------------------------12-------------
B----------------------------------------------10---12b14----14r12-10----
G-----------------------------------------9h11---------------------------
D-------------------7----------------------------------------------------
A-----------7---7h9----9---/---------------------------------------------
E--7----7h9--------------------------------------------------------------

E------------------------------------------------------------------------
B--9h10--9---------------------------------------------------------------
G--9h11--9---------------------------------------------------------------
D------------------------------------------------------------------------
A------------------------------------------------------------------------
E------------------------------------------------------------------------

END Chord (with Chorus effect)
E--12-----------
B--10-----------
G--11-----------
D---------------
A---------------
E---------------


That's all!
Mail me to la_laker83@hotmail.com
Comments