Incubus - Are You In Chords & Tabs

 

Are You In Chords & Tabs

Incubus Chords & Tabs

Version: 2 Type: Tab 0 ratings
1 star 2 stars 3 stars 4 stars 5 stars
comments

Are You In Tab

There isn't really timing on this, unless it's a big gap

|-12---------5----
|-10---------2--8-
|-11--------------
|-12--------------
|-----------------
|-----------------

|-12-12--9--9--5--4--2-----12-
|-10-10--7--7--2--2--2--5--10-
|-11-11--------------------11-
|-12-12--------------------12-
|-----------------------------
|-----------------------------

This part is played in harmonics, not sure how they're meant to be indicated in a tab.

|------12-------       --12---------
|---------12----       -------------
|---------------       -------------
|---7---------9-       -------------
|-7-------------       -----9--9--9-
|---------------  x2   -------------

repeat this sequence and change it around a bit the third time.

Chorus:

|-12---9---5--12---9---5-
|-10---7---2--10---7---2-
|-11----------11---------
|-12----------12---------
|------------------------
|------------------------

then
[ Tab from: http://www.guitartabs.cc/tabs/i/incubus/are_you_in_tab_ver_2.html ]
|--------------------5-5----------------------------------
|----------------------x----------------------------------
|------2-4^-----2-4b---4-r4--2-4^--4------------------2---
|-2h4-------2-4----------------------2h4--------2-2h4---4-
|----------------------------------------2--2h4-----------
|---------------------------------------------------------

|--------------17--------------------
|------------------------------------
|-------14-16b----r-16-14---14----14-
|-14h16---------------------14h16-14-
|------------------------------------
|------------------------------------

some harmonics again and then the chorus

|------------------------
|------------------------
|------------------------
|----------5-----7---5---
|--------7-----9---7---7-
|-3-0--7-----9----------- x5

|-----------------------------------------------------------
|-----------------------------------------------------------
|-----------------------------------------------------------
|-----5-----7---5-----------5-----7-7-7/------------2h4p2---
|---7-----9---7---7-------7-----9---------5-5/--2-0-------4/
|-7-----9-----------3-0-7-----9-----------------------------
Comments