Incubus - Are You In Chords & Tabs

 

Are You In Chords & Tabs

Incubus Chords & Tabs

Version: 2 Type: Bass Tab 0 ratings
1 star 2 stars 3 stars 4 stars 5 stars
comments

Are You In Bass Tab

Artist: Incubus
Song: Are You In?
Album: Morning View

Instrument: Bass
Transcripted by: Peter Reilly

This is undoubtedly one of the best songs on this album.  I don't think this is how 
Dirk Lance plays it, he moves up and down the bass.  I'm gona tab it the easier way 
with less movement up and down the bass.  Enjoy!

   Intro
G:|-14/16----|-14/16--------|-14/16----|-14/16----------|-14/16----|----14h16-14---|
D:|-14/16----|-14/16--------|-14/16----|-14/16----------|-14/16----|------------16-|
A:|----------|-------14-----|----------|--------14------|----------|---------------|
E:|----------|---------14\--|----------|-----------13\--|----------|---------------|

   Verse
G:|------------|--2--2-2h4p2-|------------|------------|
D:|-0-x--------|-2-42--------|-0-x--------|------------| play 3x
A:|----20-2----|-------------|----20-2----|-22-0h2-0---|
E:|--------02--|-------------|--------02--|---------20-|
[ Tab from: http://www.guitartabs.cc/tabs/i/incubus/are_you_in_btab_ver_2.html ]
   Chorus 1
G:|---------------------------------|---------------------------------|
D:|-0-0-0-0-------------------------|-0-0-0-0-------------------------|
A:|---------0-0-0-0-----------------|---------0-0-0-0---------0-0-2-2-| play 2x
E:|-----------------2-2-2-2-2-2-2-2-|-----------------2-2-2-2---------|

   Go back to Verse

   Chorus 2
G:|---------------------------------|---------------------------------|
D:|-0-0-0-0-------------------------|-0-0-0-0-------------------------|
A:|---------0-0-0-0-----------------|---------0-0-0-0---------0-0-2-2-|
E:|-----------------2-2-2-2-2-2-2-2-|-----------------2-2-2-2---------|

G:|---------------------------------|--------------------------------|
D:|-0-0-0-0-------------------------|-0-0-0-0------------------------|
A:|---------0-0-0-0-----------------|---------0-0-0-0----------------|
E:|-----------------2-2-2-2-2-2-2-2-|-----------------2-2-2--x2-x2/\-|

   Interlude
G:|---------------------|		|-------------------14h16-14---|
D:|---------5---7--(5)--|    repeat	|---------5---7\------------16-|
A:|--------7---7---10-7-| as neccesary	|--------7---7--7\-------------|
E:|-3--0--7---7---7-----|then last time	|-3--0--7---7-----5\-----------|

   Verse play 2x
   Chorus 1 play 2x finishing on open string D.
Comments