Incubus - Are You In Chords & Tabs

 

Are You In Chords & Tabs

Incubus Chords & Tabs

Version: 1 Type: Bass Tab 0 ratings
1 star 2 stars 3 stars 4 stars 5 stars
comments

Are You In Bass Tab

Are You In

Intro  do that for however times u do it then :
G||-14/16-14/16----------|----14h16--14---------------------|
D||-14/16-14/16--16------|--------------16------------------|
A||-----------------14/--|----------------------------------|
E||----------------------|----------------------------------|

verse
1st part
G||----------------------------------------------|
D||--------------------------16------------------|
A||-----------------------------------12-12h14p12|
E||--10*--x-7--5*-5-x-2*/14----14-12-------------|
[ Tab from: http://www.guitartabs.cc/tabs/i/incubus/are_you_in_btab.html ]
2nd Part
G||------------------------------------|
D||------------------------------------|
A||----------------------2-2-1h2-------|
E||--10*--x-7--5*-5-x-2*---------1-2-0-|

chorus repeat twice and end with this ending.
G||-------------------------------------|----------|
D||-------------------------------------|-End With-|
A||-------------------------------------|---This---|
E||-10-10-10-10/5-5-5-5-/2-2-2-2-2-2-2-2|-5-5-7-7--|

Breakdown 
G||-------------------------|
D||---------5----7----------|
A||--------7----9-----10-7--|
E||--3-0--7----7----7-------|

at the end of this there r just some slides...upa dn down and back up 2
G||-14h16--14---------------------|
D||-----------16------------------|
A||-------------------------------|
E||-------------------------------|

then the verse and chrous..
Comments