Incubus - Anti Gravity Song Chords & Tabs

 

Anti Gravity Song Chords & Tabs

Incubus Chords & Tabs

Version: 1 Type: Tab 0 ratings
1 star 2 stars 3 stars 4 stars 5 stars
comments

Anti Gravity Song Tab

   
Song: Anti gravity song
Artist: incubus
Album: S.C.I.E.N.C.E.
Tuning: starndared
By: Tim Dobson (Spadey)
E-mail: CrashedTD@aol.com

This has been really ifficult to tab, so 
i think there are some misstakes some where
along the line, but hey!

main riff
A|-2h5-2-0h2-------2h5-2-0h2-------|
E|-----------2-2h5-----------3-3h5-|
with a wah wah pulled all da way back for that
muffled fuzzy sound

variation 1
A|-2h5--0h2------------|
E|-----------3h5--2h3--|

variation 2
A|-2h5-2-0h2-222222-|
E|------------------|
[ Tab from: http://www.guitartabs.cc/tabs/i/incubus/anti_gravity_song_tab.html ]
quick little solo
e|-7-10-7-----------------------|
b|------------------------------|
G|--------9-7-----7p6-----/9-77-|
D|------------7-6-----6h7-------|


verse
e|---------------------7777--7~-|
b|---------------------7777--7~-|
G|-7-9-9/11-9-7-9-7----------7~-|
D|------------------9-----------|

variation to the verse
e|-----------------------77-10-77-10----------|
b|-----------------------------------9-7------|
G|-7-9-9/11-9-7-9-7----------------------9-7--|
D|------------------9-------------------------|


chorus
b|-9-xx-9--8-xx-8--7-xx-7--6---|
G|-9-xx-9--9-xx-9--9-xx-9--9---|
D|-8-xx-8--8-xx-8--8-xx-8--8---|
not sure about this


Cantact me with any comments etc. Or if you would like me to tab
another incubus song, just ask! Chears. Spadey
Comments