Incubus - Answer Chords & Tabs

 

Answer Chords & Tabs

Incubus Chords & Tabs

Version: 2 Type: Bass Tab 0 ratings
1 star 2 stars 3 stars 4 stars 5 stars
comments

Answer Bass Tab

artist :incubus
song:the answer
album:fungus amungus
tabbed by:nick watts

h=hammer on

Intro:
(Drums...)
G|------------------------------------------------|
D|------------------------------------------------| x2
A|------------------------------------------------|
E|-6-5-5-5-6-5--5-6---6-5-5-5-6-5--5-5------------|
Let 5 on E ring after the fourth time until the verse.

Verse:
G|---------------0h7-0h7--------------------------|
D|-8-8-7--8-7--7----------------------------------|
x12
A|------------------------------------------------|
E|------------------------------------------------|
Slap the whole verse or else it will sound dumb.
[ Tab from: http://www.guitartabs.cc/tabs/i/incubus/answer_btab_ver_2.html ]
Pre-Chorus:
G|------------------------------------------------|
D|------------------------------------------------| x4
A|------------------------------------------------|
E|-7-7-7-7--0-8-8-8-8-----------------------------|

Chorus:
G|------------------------------------------------|
D|------------------------------------------------| x8
A|------------------------------------------------|
E|-6-5-5-5-6-5--6-5---6-5-5-5-6-5--6-5------------|
The chorus is almost the same as the intro but let the
notes ring.

Verse x8
Pre-chorus x4
Chorus x8

Bridge:
G|------------------------------------------------|
D|-8-7--8-7--7-7--7--7----------------------------|x20
A|------------------------------------------------|
E|------------------------------------------------|
Slap during the whole bridge.

Verse x8
Pre-Chorus x4
Chorus x8
Don't let the last note ring the last time you play
the chorus.
Comments