Incubus - Acqueous Transmission Chords & Tabs

 

Acqueous Transmission Chords & Tabs

Incubus Chords & Tabs

Version: 1 Type: Tab 0 ratings
1 star 2 stars 3 stars 4 stars 5 stars
comments

Acqueous Transmission Tab

artist: incubus
title: acqueous transmission
album: morning view

i just figured this out for fun and its wrong so dont use it. you have to play this riff thru out the entire song. this is how i play it on the guitar but mike plays it on some sort of asian thing.
[ Tab from: http://www.guitartabs.cc/tabs/i/incubus/acqueous_transmission_tab.html ]
e:----5-2-------------
b:---3----------------
g:2-4-----------------
d:--------------------
a:--------------------
e:--------------------

e:--------------------
b:1/2-0---------------
g:-----2-4-2-4--4-2-4-
d:------2-----2-------
a:-------------2-----2
e:--------------------

comments at benij@prodigy.net
Comments