Incubus - A Crow Left Of The Murder Chords & Tabs

 

A Crow Left Of The Murder Chords & Tabs

Incubus Chords & Tabs

Version: 5 Type: Tab 0 ratings
1 star 2 stars 3 stars 4 stars 5 stars
comments

A Crow Left Of The Murder Tab

tabbed by max.s.


verse

---------------------------------|
---------------------------------|
--------4------------------------|
----4-6---6-4-6------------------|
----------------------2----------|
--0-------------0-2-4---4-2-4----| x2

---------------------------------|
--------4------------------------|
---------------------------------|
----4-6---6-4-6--------1---------|
---------------------------------|
--0--------------0-2-4---4-2-4---|

---------------------------------|
---------------------------------|
--------4------------------------|
----4-6---6-4-6------------------|
---------------------------------|
--0-------------0-2-0-4-4-0------|

play 3 more times

chorus

these are the chords for the next part

---------------------|
---------------------|
-----7---------------|
--5--7--9------------|
--5--5--9------------|
--3-----7------------|  x4

play verse again x2

play chorus x8

bridge
[ Tab from: http://www.guitartabs.cc/tabs/i/incubus/a_crow_left_of_the_murder_tab_ver_5.html ]
---------------------------------------------------------------------|
---------------------------------------------------------------------|
--4--4-7--9--4----4-2-4-5-4-5-4-2---4--4-7--9--4----4-2-4-5-4-5-4-2--|
--x--x-x--x--x----x-0-x-x-x-x-x-0---x--x-x--x--x----x-0-x-x-x-x-x-0--|
--2--2/5--7--2----2-0-2-3-2-3-2-0---2--2/5--7--2----2-0-2-3-2-3-2-0--|
---------------------------------------------------------------------|

repeat above part with faster strumming, then play

-----------------------------------------------------|
--------------------------------------------8-6------|
--4--4-7--9--4----4-2-4-5-4-5-4-2---4--4-7--x-x------|
--x--x-x--x--x----x-0-x-x-x-x-x-0---x--x-x--5-3------|
--2--2/5--7--2----2-0-2-3-2-3-2-0---2--2/5-----------|
-----------------------------------------------------|

outro

play part 1 twice, then:

-------------------------------------|
-------------------------------------|
--------4----------------------------|
----4-6---6-4-6----------------------|
-------------------------------------|
--0-------------0-2-0-4-4-0----------|       x2

-------------------------------------|
--------4----------------------------|
-------------------------------------|
----4-6---6-4-6----------------------|
-------------------------------------|
--0-------------0-2-0-4-4-0----------|       x2

--------------------------|
--------------------------|
--------4-----------------|
----4-6-------------------|
--------------------------|        play this part as much as needed
--0-----------------------|

then play this last bit once:

-----------------------|
-----------------------|
-----------------------|
-----------------------|
-----------------------|
--0-2-0-4-4-0----------|
Comments