Incubus - A Crow Left Of The Murder Chords & Tabs

 

A Crow Left Of The Murder Chords & Tabs

Incubus Chords & Tabs

Version: 2 Type: Bass Tab 0 ratings
1 star 2 stars 3 stars 4 stars 5 stars
comments

A Crow Left Of The Murder Bass Tab

   
Band- Incubus
Album- A Crow Left Of The Murder

1.MEGALOMANIAC

Intro:
Slowly Fade in the Low G. Then on the 5th repeat of the guitar riff, play the next G up. 
getting louder.
G|-----------------------------------------------------------------------|
D|-----------------------------------------------------------------------|
A|---------------10----10-10-10-10-10------------------------------------|
E|----3------------------------------------------------------------------|

Chorus: (0:36 (4x), 1:24 (4x), 2:19 (4x+variation), 3:48 (4x+variation)
G|-----------------------------------------------------------------------|
D|-----------------------------------------------------------------------|
A|----------1-/6-6-6-3-3-3-----------------------------------------------|
E|--3-1-3-1--------------------------------------------------------------|

Verse 1: (0:50)
G|-----------------------------------------------------------------------|
D|-----------------------------------------------------------------------|
A|--------------3-3-1-3-R--6-6-5-6-R----------------6-6-5-6-R--3-3-1-3-R-|
E|--3-3-1-3-R------------------------3-3-1-3-R-(4)-----------------------|

G|----------------------------------------------------------------------|
D|----------------------------------------------------------------------|
A|--------------3-3-1-3-R--6-6-5-6-R------------6-6-5-6-R--3-3-1-3------|
E|--3-3-1-3-R------------------------3-3-1-3-R---------------------3-1--|

Pre-Chorus: (2x)
G|----------------------------------------------------------------------|
D|----------------------------------------------------------------------|
A|----------------------------------------------------------------------|
E|--3-3-1-3--3-1-3--3-1-3--1-1------------------------------------------|


Verse 2: (1:38)
G|----------------------------------------------------------------------|
D|----------------------------------------------------------------------|
A|---------------6-6-5-6-R--3-1------------------3-3-1-3-R--6-6-5-6-R---|
E|--3-3-1-3-/15-----------------3-1--3-3-1-3-(4)------------------------|

G|--------------------------------------------------------------------------|
D|--------------------------------------------------------------------------|
A|--------------6-6-5-6-R--3-3-1-3--------------------3-3-1-3-R--6-6-5-6-R--|
E|--3-3-1-3-R----------------------3-1-1--3-3-1-3-(4)-----------------------|

G|-----------------------------------------------------------------------|
D|-----------------------------------------------------------------------|
A|---------------6-6-5-6-R--3-3-1-3--------------------------------------|
E|--3-3-1-3-R-----------------------3-1----------------------------------|

Pre-Chorus: (2:13) (2x)
G|----------------------------------------------------------------------|
D|----------------------------------------------------------------------|
A|----------------------------------------------------------------------|
E|--3-3-1-3--3-1-3--3-1-3--1-1------------------------------------------|

Chorus: Variation @ (2:26 and 4:02) (4x) (End the last variation at the end of
the song with a C power chord)
G|---------------------------------------------------------------------------|
D|--5------------------------------------------------------------------------|
A|----------1-/6-6-6-3-3-3---------------------------------------------------|
E|----1-3-1------------------------------------------------------------------|

Interlude: (2:47)
G|----------------------------------------------------------------------|
D|------------------------3---------------------------------------------|
A|--3-5-5-5-5-3--------------3-5-5-5-5-3--------------------------------|
E|--------------1-1-1-1-1----------------1-1-1-0-1----------------------|

G|----------------------------------------------------------------------|
D|------------------------3--------------3-3-3-3------------------------|
A|--3-5-5-5-5-3--------------3-5-5-5-5-3--------------------------------|
E|--------------1-1-1-1-1-----------------------------------------------|

G|----------------------------------------------------------------------|
D|------------------------3---------------------------------------------|
A|--3-5-5-5-5-3--------------3-5-5-5-5-3--------------------------------|
E|--------------1-1-1-1-1----------------1-1-1-0-1----------------------|

G|----------------------------------------------------------------------|
D|------------------------3--------------3-1-3-1-3----------------------|
A|--3-5-5-5-5-3--------------3-5-5-5-5-3--------------------------------|
E|--------------1-1-1-1-1-----------------------------------------------|

G|----------------------------------------------------------------------|
D|----------------------------------------------------------------------|
A|--3-5-5-5-5-3--------------3-5-5-5-5-3--------------------------------|
E|--------------1-1-1-1-1----------------1-1-1-0-1----------------------|

G|----------------------------------------------------------------------|
D|--------------3H5P3-3-3-3---------------------------------------------|
A|--3-5-5-5-5-3--------------3-5-5-5-5-3--------------------------------|
E|---------------------------------------1-1-1-0-1----------------------|

(4x)
G|----------------------------------------------------------------------|
|--5-7-7----------------------------------------------------------------|
A|--3-5-8--8-8-8-8------------------------------------------------------|
E|----------------------------------------------------------------------|


Notes in () are harmonics.

2.A CROW LEFT OF THE MURDER

G|--------------|
D|--------------|
A|--------------|
E|-0-2-0-22-4-0-|

beggining of verse
G|-----------------------------------------------|
D|-----------------------------------------------|
A|----------------2----------------------2-------|
E|-000-000--0-2-4---4-2-4--000-000-0-2-4---4-2-4-|

G|--------------------------------------------|
D|--------------------------------------------|
A|---------------6----------------------------|
E|-000-000-0-2-4---4-2-4-000-000-0-2-0-22-4-0-|

main verse riff
G|------------------------------------------------------------------|
D|------9----------------------------------9------------------------|
A|--9-11--11-9-11---------2-----------9-11---11-9-11--------2-------|
E|-0----------------0-2-4---4-2-4--0------------------0-2-4---4-2-4-|

G|---------------------------------------------------------------|
D|--------13------------------------------9----------------------|
A|---9-11---11-9-11-------6----------9-11---11-9-11--------------|
E|-0----------------0-2-4---4-2-4-0-----------------0-2-0-22-4-0-|

chrous
G|----------|
D|----------|
A|----5>-2>-|
E|-3>-------|

bridge/solo
G|---------------------------------------------22---22---22-----2---|
D|-------------------------------------------2----3----3-----33---3-|
A|--------5>-7-5--5h7--------------------2-4------------------------|
E|-0>-5h7--------7----5h7-3>-0-3-0-2-4-5----------------------------|

G|----------------------------7>-5>-|
D|----5-4------7-4------------5>-3>-|
A|--------7-5>-----5-----5h7--------|
E|-0>----------------5h7------------|

G|----------------------------------------------|
D|----------------------------------------------|
A|---5>-----x2-3--2-3-2----5>------x2-3---2-3-2-|
E|-0>--3>-5-----5-------0>----3>-5------5-------|

G|------------------------------------------------2-5--2-5--5-2-|
D|----------------------7-5-4--5-4----------2-5-3----3----3-----|
A|---5-7--5-7--5-7----5-----------------2-5---------------------|
E|-0----0----0-----3>--------------3>-3-------------------------|

G|--------------------------------7----------------2----|
D|----------------------7-5-4h5p4-5----------2h5p2---3>-|
A|---5-7--5-7--5-7----5------------------2-5------------|
E|-0----0----0-----3>---------------3>-3----------------|

verse variation
G|---------------------------------------------------------|
D|------9---------------------------9----------------------|
A|--9-11--11-9-11--------------9-11---11-9-11--------------|
E|-0--------------0-2-0-22-4-0----------------0-2-0-22-4-0-|

G|-----------------------------------------------------------|
D|--------13--------------------------9----------------------|
A|---9-11---11-9-11--------------9-11---11-9-11--------------|
E|-0----------------0-2-0-22-4-0----------------0-2-0-22-4-0-|

ending
G|--------20-------20-|---------------|
D|--16h18----16h18----|---------------|
A|--(repeat alot)-----|---------------|
E|--------------------|-0-2-0-22-4-0~-|

3.AGORAPHOBIA

Intro
G|-------------------------------|
D|----3------3--4----3------3--4-|
A|-5------5-------5------5-------|
E|-------------------------------|

Verse 1
G|------------------------------------------------|
D|------3--------------------3--------------------|
A|-3-5------3-5---------3-5------3-5-----8---10-8-| X4
E|--------------0-3-1----------------0-3/--0------|

Pre-chorus 1
G|-------------------------------------------------------|
D|-------1----3-3-3-1-----1-3-3-3-1-----1-3-3-3-1--------|
A|-3-3-3----------------3-------------3------------1-1-1-|
E|-------------------------------------------------------|

G|--------------------------------------------------------|
D|-------1----3-3-3-1-----1-3-3-3-1-----1-3-3-3-3-3-3-3-3-|
A|-3-3-3----------------3-------------3-------------------|
E|--------------------------------------------------------|

Chorus 1
G|-----3-------------------------3-----3-------------------------3-|
D|-5-5---1-1-1-3---------1-1-0-1---5-5---1-1-1-3---------0-0---0---|
A|---------------1-1-1-3-------------------------1-1-1-3-----3-----|
E|-----------------------------------------------------------------|

G|-----3-------------------------3-----3-------------------|
D|-3-5---1-1-1-3---------1-1-0-1---5-5---1-1-1-3-------1---|
A|---------------1-1-1-3-------------------------1-1-3-----|
E|---------------------------------------------------------|

Verse 2
G|----------------------------------------------|
D|----3--------------------3--------------------|
A|-5------3-5---------3-5------3-5-----8---10-8-|
E|------------0-3-1----------------0-3/--0------|

G|------------------------------------------------|
D|------3--------------------3--------------------|
A|-3-5------3-5---------3-5------3-5-----8---10-8-| X3
E|--------------0-3-1----------------0-3/--0------|

Pre-chorus 2
G|-------------------------------------------------------|
D|-------1----3-3-3-1-----1-3-3-3-1-----1-3-3-3-1--------|
A|-3-3-3----------------3-------------3------------1-1-1-|
E|-------------------------------------------------------|

G|----------------------------------------------------------|
D|-------1--3h5-3-3-3-1-----1-3-3-3-1-----1-3-3-3-3-3-3-3-3-|
A|-3-3-3------------------3-------------3-------------------|
E|----------------------------------------------------------|

Chorus 2
G|-----3-------------------------3-----3-------------------------3-|
D|-5-5---1-1-1-3---------1-1-0-1---5-5---1-1-1-3---------0-0---0---|
A|---------------1-1-1-3-------------------------1-1-1-3-----3-----|
E|-----------------------------------------------------------------|

G|-----3-------------------------3-----3---------------------|
D|-3-5---1-1-1-3---------1-1-0-1---5-5---1-1-1-3-------------|
A|---------------1-1-1-3-------------------------1-1-3-5--5--|
E|-----------------------------------------------------------|

Interlude
G|------------------------------------------------------|
D|-15--13--12----------------------------1--0-1--0-1--/-|
A|--------------6--6--6-6-6-3--1-3--1-3-----------------|
E|------------4-----------------------------------------|

G|------------------------------------------------------|
D|-15--13--12-----------------------------------------1-|
A|--------------6--6--6-6-6-3--1-3--1-3-------1-2-3-4---|
E|------------4-------------------------1-3-4-----------|

G|---------------------------------------------------------|
D|-15--13--12-------------8-8-6-6-5-5----------------------|
A|--------------6--6--6-6-------------8-8-6-6---6----------|
E|------------4-------------------------------8---6--3-3-6-|

G|-----------------------------------------------------------|
D|-15--13--12------------------------------------------------|
A|--------------6--6--6-6-6-3--1-3--1-3----------13-14-15-16-|
E|------------4-------------------------13-15-16-------------|

G|------------------------17-18--19-20-20-------------------------|
D|----------15-16-17-18-------------------------------------------|
A|-15-17-18----------------------------------6---/10---8----------|
E|---------------------------------------------------------6---8--|

Chorus 3/Outro
G|-----3-------------------------3-----3-------------------------3-|
D|-5-5---1-1-1-3---------1-1-0-1---5-5---1-1-1-3---------0-0---0---|
A|---------------1-1-1-3-------------------------1-1-1-3-----3-----|
E|-----------------------------------------------------------------|

G|-----3-------------------------3-----3-------------------------3-|
D|-3-5---1-1-1-3---------1-1-0-1---5-5---1-1-1-3---------0-0---0---|
A|---------------1-1-1-3-------------------------1-1-1-3-----3-----|
E|-----------------------------------------------------------------|

G|-----3-------------------------3-----3---------------------|
D|-3-5---1-1-1-3---------1-1-0-1---5-5---1-1-1-3-------1--1--|
A|---------------1-1-1-3-------------------------1-1-3-------|
E|-----------------------------------------------------------|

4.TALK SHOW ON MUTE

Intro - Guitar

At the end of the guitar intro

G|-------|
D|-------|
A|-7-7-0-|
E|-------|


Verse Pt. 1

G|---------------------------------|
D|---------------------------------|
A|-3-3-0-3-3-5-5-0-3-3-0-3-3-5-5-0-|
E|---------------------------------|

G|---------------------------------|
D|---------------------------------|
A|-----------2-2-------------7-7-0-|
E|-5-5-3-5-5-----3-5-5-3-5-5-------|


Verse Pt. 2

G|---------------------------------|
D|---------------------------------|
A|-3-3-0-3-------0-3-3-0-3---------|
E|-------------------------------3-|

G|---------------------------------|
D|---------------------------------|
A|---------------------------------|
E|-5-5-3-5-------3-5-5-3-5---7-7-0-|

G|---------------------------------|
D|---------------------------------|
A|-3-3-0-3-------0-3-3-0-5/7-------|
E|-------------------------------3-|

G|---------------------------------|
D|---------------------------------|
A|---------------------------------|
E|-5-5-3-5-------3-5-5-3-5---7-7-0-|


Chorus

G|-------------------------------------------------------------------------|
D|-----------------------5-5-2-2---2---2/3p2-------------------------------|
A|-8---8---8-8-------------------3-----------3h5p3-----------1-------1-----|
E|---8---8-----8-8---3-3---------------------------1-1-3-1-1---1-3-------3-|


Verse Pt. 1

G|---------------------------------|
D|---------------------------------|
A|-3-3-0-3-3-5-5-0-3-3-0-3-3-5-5-0-|
E|---------------------------------|

G|---------------------------------|
D|---------------------------------|
A|-----------2-2-------------7-7-0-|
E|-5-5-3-5-5-----3-5-5-3-5-5-------|


Verse Pt. 2

G|---------------------------------|
D|---------------------------------|
A|-3-3-0-3-------0-3-3-0-3---------|
E|-------------------------------3-|

G|---------------------------------|
D|---------------------------------|
A|---------------------------------|
E|-5-5-3-5-------3-5-5-3-5---7-7-0-|

G|---------------------------------|
D|---------------------------------|
A|-3-3-0-3-------0-3-3-0-5/7-------|
E|-------------------------------3-|

G|---------------------------------|
D|---------------------------------|
A|---------------------------------|
E|-5-5-3-5-------3-5-5-3-5---7-7-0-|


Chorus

G|-------------------------------------------------------------------------|
D|-----------------------5-5-2-2---2---2/3p2-------------------------------|
A|-8---8---8-8-------------------3-----------3h5p3-----------1-------1-----|
E|---8---8-----8-8---3-3---------------------------1-1-3-1-1---1-3-------3-|

G|-------------------------------------------------------------------------|
D|-----------------------5-5-2-2---2---2/3p2-------------------------------|
A|-8---8---8-8-------------------3-----------3h5p3-----------1-------1-----|
E|---8---8-----8-8---3-3---------------------------1-1-3-1-1---1-3-------3-|


Bridge

G|---------------------------------|
D|---------------------------------|
A|-3-3-0-3-------0-3-3-0-3---------|
E|-------------------------------3-|

G|---------------------------------|
D|---------------------------------|
A|---------------------------------|
E|-5-5-3-5-------3-5-5-3-5---7-7-0-|

G|---------------------------------|
D|---------------------------------|
A|-3-3-0-3-------0-3-3-0-3---------|
E|-------------------------------3-|

G|---------------------------------|
D|---------------------------------|
A|---------------------------------|
E|-5-5-3-5-------3-5-5-3-5---7-7-0-|

G|---------------------------------------------------------------------------------|
D|-----------------------5-5-2-2---2---2/3p2---------------3h5p3---------------2---|
A|-8---8---8-8-------------------3-----------3h5p3-------3-----------------2-5---3-|
E|---8---8-----8-8---3-3---------------------------1-1-3---------1-3---3-5---------|

G|-------------------------------------------------------------------------|
D|-----------------------5-5-2-2---2---2/3p2-------------------------------|
A|-8---8---8-8-------------------3-----------3h5p3-----------1-------1-----|
E|---8---8-----8-8---3-3---------------------------1-1-3-1-1---1-3-------3-|


Outro

G|---------------------------------|
D|---------------------------------|
A|-3-3-0-3-3-5-5-0-3-3-0-3-3-5-5-0-|
E|---------------------------------|

G|---------------------------------|
D|---------------2-3-3-2-3-3-------|
A|-----------2-2-------------3-3-5-|
E|-5-5-3-5-5-----------------------|

G|---------------------------------|
D|---------------------------------|
A|-3-3-0-3-3-5-5-0-3-3-0-3-3-5-5-0-|
E|---------------------------------|

G|---------------------------------|
D|---------------2-3-3-2-3-3-------|
A|-----------2-2-------------3-3-5-|
E|-5-5-3-5-5-----------------------|

G|---------------------------------|
D|---------------------------------|
A|-3-3-0-3-3-5-5-0-3-3-0-3-3-5-5-0-|
E|---------------------------------|

G|-------------------------------------|
D|-------------------------------------|
A|-----------2-2~-------------------3~-|
E|-5-5-3-5-5---------------------------|

5.BEWARE!CRIMINAL

Intro

G ----------|
D ----------|
A -4-4-4----| x2
E -------0--|

G ---------|
D ---------|
A -0-0-0---|
E -------0-|

Verse x2

G ---------|
D ---------|
A -4-4-4---|
E -------0-|

G ---------|
D ---------|
A -0-0-0---|
E -------0-|

Variation

G ---------|
D ---------|
A -4-4-4---|
E -------0-|

G -----------------------|
D -2-4-------------------|
A -----2-4-----------2---|
E ---------2-4-0-0-0---2-|

Verse

G ---------|
D ---------|
A -4-4-4---|
E -------0-|

G ---------|
D ---------|
A -0-0-0---|
E -------0-|

Variation

G ---------|
D ---------|
A -4-4-4---|
E -------0-|

G ---------------|
D -2-4-----------|
A -----2-4-------|
E ---------2-4-0-|

Chorus (vary repetition to groove)

G ------------------|
D ------------------|
A -0-0-0-0--4-4-4-4-|
E ------------------|

G ---------------------------|
D ---------------------------|
A ---------------------------|
E -2-0-2-0-2-2-0-1-0-1-0-1-1-|

G --------------------------------|
D --------------------------------|
A -0-0-0-0--4-4-4-4---------------|
E ------------------2-2-2-2-22-00-|

G -------------------------|
D -------------------------|
A -0-0-0-0---------4-4-4-4-|
E ---------4-4-4-4---------|

G --------------1-2-1--------11-9-------|
D -------0-2-4--------2--0--------9-8---|
A -0-2-4-------------------2------------|
E ------------------------------------0-|

Verse

G ---------|
D ---------|
A -4-4-4---|
E -------0-|

G ---------|
D ---------|
A -0-0-0---|
E -------0-|

Variation

G ---------|
D ---------|
A -4-4-4---|
E -------0-|

G ---------------|
D -2-4-----------|
A -----2-4-------|
E ---------2-4-0-|

Verse

G ---------|
D ---------|
A -4-4-4---|
E -------0-|

G ---------|
D ---------|
A -0-0-0---|
E -------0-|

Variation


G ---------------|
D -2-4-----------|
A -----2-4-------|
E ---------2-4-0-|

Verse

G ---------|
D ---------|
A -4-4-4---|
E -------0-|

G ---------|
D ---------|
A -0-0-0---|
E -------0-|

Variation

G ---------|
D ---------|
A -4-4-4---|
E -------0-|

G ---------------|
D -2-4-----------|
A -----2-4-------|
E ---------2-4-0-|

Chorus into Interlude

G ------------------|
D ------------------|
A -0-0-0-0--4-4-4-4-| (vary repetition to groove)
E ------------------|

G ---------------------------|
D ---------------------------|
A ---------------------------|
E -2-0-2-0-2-2-0-1-0-1-0-1-1-|

G ---------------------------------|
D -------------------4-4-4-4-33-22-|
A -0-0-0-0--4-4-4-4----------------|
E ---------------------------------|

G -------------------------|
D -------------------------|
A -0-0-0-0---------4-4-4-4-|
E ---------4-4-4-4---------|

G --------------1-2-1--------11-9-----|
D -------0-2-4--------2--0--------9-8-|
A -0-2-4-------------------2----------|
E ------------------------------------|

G ---------3-4-6-9-11-9-----|
D -4-2------------------9-8-|
A -----2-1------------------|
E --------------------------|

G ---------------|
D -2h4-2-2-------|
A ---------1 x24-|
E ---------------|

Outro

G ---------|
D ---------|
A -0-04-4--|
E -------0-|

G -----------------|
D -----------------|
A -----------------|
E -2-2-2-2-0-0-0-0-|
[ Tab from: http://www.guitartabs.cc/tabs/i/incubus/a_crow_left_of_the_murder_btab_ver_2.html ]
G -------------------------|
D -------------------------|
A -0-0-0-0---------4-4-4-4-|
E ---------4-4-4-4---------|

G --------------1-2-1--------11-9-------------|
D -------0-2-4--------2--0--------9-8---------|
A -0-2-4-------------------2------------------|
E ------------------------------------2-2-2-0-|

6.SICK SAD LITTLE WORLD

Intro and Chorus

G||----------------------------------------------------------------|
D||------------------4-0-4-----------h2----------------------------|
A||------4---4---------------0h2h3h4---4-2-------------------------|
E||--0-5---5---5-0-2-----------------------5555555555555555555-222-|

G||-----------------------------------------------------------------|
D||------------------4-0-4-----------h2-----------------------------|
A||------4---4---------------0h2h3h4---4-2--------------------------|
E||--0-5---5---5-0-2-----------------------5555555555555555222-555--|

 Verse

Verse (Fast)

G|-----------------------------------------------------------------------------|
D|-----------------------------------------------------------------------------|
A|-4-4-4-4-4-4---4-4-4-4-4-4-------------------------------------4-4-4-4-4-4---|
E|---------------------------5-5-5-5-5-5--02-2-2-2-2-0-0-0-0-0-0---------------|

G|---------------------------------------------------------------------------------|
D|----------------------------------------4-4-4-4-4-4/0----------------------------|
A|-4-4-4-4-4-4---4-4-4-4-4-4-----------------------------------------4-4-4-4-4-4---|
E|---------------------------5-5-5-5-5-5-----------------0-0-0-0-0-0---------------|

G|-----------------------------------------------------------------------------|
D|-----------------------------------------------------------------------------|
A|-4-4-4-4-4-4---4-4-4-4-4-4-------------------------------------4-4-4-4-4-4---|
E|---------------------------5-5-5-5-5-5--02-2-2-2-2-0-0-0-0-0-0---------------|

G|---------------------------------------------------------------------------------|
D|----------------------------------------4-4-4-4-4-4-2-2-2-2-2-2/0----------------|
A|-4-4-4-4-4-4---4-4-4-4-4-4-----------------------------------------4-4-4-4-4-4---|
E|---------------------------5-5-5-5-5-5-------------------------------------------|

Pre-Chorus
If u play with a pick... use octaves (power chords) and play like that
G||--------------------------------------------------|
D||--------------------------------------------------|
A||----9~~~~~~4~~~~~~~~9~~~~4~~7~~(12)---------------|(2 times before chorus)
E||-------------------------------5------------------|

Bridge (guitar solo)

G||-------------------------11/9---|
D||--------------------------9/7---| x alot
A||--9-----9------9----9--0~-------|
E||----989--98989--989--9----------|
I thought it was 7 instead of 8 but that's how he played it w/e

7.PISTOLA

Intro/verse:

G|-------------------------------------|
D|-------------------------------------|
A|--7----7---7-5-5-5-5-6-6-6-----------|              x4
E|-0-0-0---0---------------------------|


G|-------------------------------------------------|
D|---------6--4/6--4-------------------------------|
A|-----7-------------------------------------------|                 x2
E|----5--5-----------------------------------------|

G|-----------------------------------------------|
D|-----------------------------------------------|
A|--7----7---7-5-5-5-5-6-6-6---7---77-5-5-5-----|
E | -0-0-0---0------------------0-0-00----------|
Chorus:

G|---------------------------------------------------|
D|---------------------------------------------------|
A|-3-3-3-3-3-3-3-3-3h5-------------------------------|
E | ---------------------5-5-5-5-5-0-0-1-1-3-3-0-0---|

G|---------------------------------------------------|
D|---------------------------------------------------|
A|-3-3-3-3-3-3-3-3-3/12-12-12-12---------------------|
E | --------------------------------0-0-0------------|


G|---------------------------------------------------|
D|---------------------------------------------------|
A|-3-3-3-3-3-3-3-3-3h5-------------------------------|
E | ---------------------5-5-5-5-5-0-0-1-1-3-3-0-0---|

G|---------------------------------------------------|
D|---------------------------------------------------|
A|-3-3-3-3-3-3-3-3-3h5-------------------------------|
E | ---------------------5-5-5-5-5-0-0-0-------------|

Verse 2:

G|-------------------------------------|
D|-------------------------------------|
A|--7----7---7-5-5-5-5-6-6-6-----------|              x4
E|-0-0-0---0---------------------------|


G|-------------------------------------------------|
D|---------6--4/6--4-------------------------------|
A|-----7-------------------------------------------|                 x2
E|----5--5-----------------------------------------|

G|-----------------------------------------------|
D|-----------------------------------------------|
A|--7----7---7-5-5-5-5-6-6-6---7---77-5-5-5-----|
E | -0-0-0---0------------------0-0-00----------|

Chorus again:

G|---------------------------------------------------|
D|---------------------------------------------------|
A|-3-3-3-3-3-3-3-3-3h5-------------------------------|
E | ---------------------5-5-5-5-5-0-0-1-1-3-3-0-0---|

G|---------------------------------------------------|
D|---------------------------------------------------|
A|-3-3-3-3-3-3-3-3-3/12-12-12-12---------------------|
E | --------------------------------0-0-0------------|


G|---------------------------------------------------|
D|---------------------------------------------------|
A|-3-3-3-3-3-3-3-3-3h5-------------------------------|
E | ---------------------5-5-5-5-5-0-0-1-1-3-3-0-0---|

G|---------------------------------------------------|
D|---------------------------------------------------|
A|-3-3-3-3-3-3-3-3-3h5-------------------------------|
E | ---------------------5-5-5-5-5-0-0-0-------------|

Bridge in time with drums:

G|-------------------------------------------------|
D|-----------8-----8-------8-----8--------8--------|
A|------------7---7---------7---------------7----7-|
E|-0-0---------606-----------60-6-------------0-6--|

G|-------------------------------------|
D|-------------------------------------|
A|----------------7--5-----------------|
E|---12/3---0-----------7--5--3---0----|

G|-----------------------------|
D|----7-5----------------------|
A|--------7--5-----------------|
E|-------------7--5--0---------|

G|---------------------------|
D|---------------------------|
A|----7--5-------------------|
E|---------7--5--3---0/12----|

G|---------------------------------------------------------|
D|---4---------------------4---------------4---------------| X2
A|-----2-2-0--------2--2-----2-2-0-------------------------|
E|------------4-2-0-----------------4-2-0----2-0-2-0-2-----|

G|------------------------------------------------------------|
D|---4---------------------------------------4----------------|
A|-----2-2-4--2-4--2--6--6----6-6-6-7--6-4-2------------------|
E|---------------------------------------------2-0-2-0-2------|

G|-----------------------------------------------------|
D|---6-6-6-7--6-4---------6-6-6-7--6-4----4------------|
A|----------------7-6--2---------------7---------------|
E|------------------------------------------2-0-2-0-2--|

G|---------------------------------------------------------|
D|---4---------------------4---------------4---------------| X4
A|-----2-2-0--------2--2-----2-2-0-------------------------|
E|------------4-2-0-----------------4-2-0----2-0-2-0-2-----|

G|---------------------|
D|---------------------|
A|--7-7-7---7---7-7-7--|
E|---------------------|

Then the Bass Solo:

G|-------------------------------------------|
D|-------------------------------------------|
A|--10\7--7-5-7-5-7--0--5-7-5-7--0--5-7-5-7--|
E|-------------------------------------------|

G|---------------------------------|
D|---------------------------------|
A|--0-5-7-5-7-5--9-7--5------------|
E|-----------------------7-6-5-3---|

Then time this with the drums again:
G|--------------|
D|--------------|
A|--7-7-7---7---| x3
E|--------------|

Then:

G|------------------------------------------|
D|------------------------------------------|
A|--7----7---7-5-5-5-5-6-6-6\13/------------|
E|-0-0-0---0--------------------------------|

Back to the Chorus Final time:

|----------------------------------------------------|
D|---------------------------------------------------|
A|-3-3-3-3-3-3-3-3-3h5-------------------------------|
E | ---------------------5-5-5-5-5-0-0-1-1-3-3-0-0---|

G|---------------------------------------------------|
D|---------------------------------------------------|
A|-3-3-3-3-3-3-3-3-3/12-12-12-12---------------------|
E | --------------------------------0-0-0------------|


G|---------------------------------------------------|
D|---------------------------------------------------|
A|-3-3-3-3-3-3-3-3-3h5-------------------------------|
E | ---------------------5-5-5-5-5-0-0-1-1-3-3-0-0---|

G|---------------------------------------------------|
D|---------------------------------------------------|
A|-3-3-3-3-3-3-3-3-3h5-------------------------------|
E | ---------------------5-5-5-5-5-0-0-0-------------|

Then the Outro:

G|-----------|                   G|----|
D|-----------|                   D|----|
A|-----------| x10 then end on   A|----|
E|----0--0-0-|                   E|-0--|

8.SOUTHERN GIRL

Verse

G|------------------------|---------------------------|
D|------------------------|--------------3h5p3-3-3----|
A|--------3h5p3-----------|--------3h5p3--------------|
E|5--x-3---------0--1-1-3-|5--x-3-----------------1-x-|

G|------------------------|---------------------------|
D|------------------------|--------------3h5p3-3------|
A|--------3h5p3-----------|--------3h5p3---------3--5h|
E|5--x-3---------0--1-1-3-|5--x-3------------------1--|


Prechorus/Guitar Solo

G|------------------------------------------------------|
D|------------------------------------------------------|
A|5--5-x-5-7-7---------------------5/7---5--7-x-8-7--8--|
E|-------------5--5-x-5-8-8-0-3~-3-----3----------------|

G|----------------------------------------------|
D|---7----------5-------------------------------|
A|----------------------------------------------|
E|5-----5-5--3-----x-3--0-1~--1-0-0-0-0-3-3-3-3-|


Chorus

G|------------------------|-----------------------------|
D|------------------------|--------------3-3h5p3-3-320--|
A|--------3h5p3-----------|--------3h5p3----------------|
E|5--x-3---------0--1-1-3-|5--x-3---------------------x-|

G|------------------------|----------------------------------|
D|------------------------|----------------------------------|
A|--------3h5p3-----------|------------------------------5h7-|
E|5--x-3---------0--1-1-0-|1-1-1-1-1-1-1-1-0-0-0-0-333-3-----|

9.PRICELESS

Intro/verse
G-----------------------------------------------------------|
D-----------------------------------------------------------|
A-----3---------3-------------------3---------3-2h3h4h5-----|
E-x-2---x-x-x-2---2h3h4p3p2-x-2---x-x-x-2-------------------|


Chorus   FLOOOOORRRRR......
G---------------55-5-----------------55-5-77-7---|
D-33-3-3-33-3-3------77-7-33-3-------------------|
A------------------------------33-3--------------|
E------------------------------------------------|

solo
G----------------------------------------------------------|
D----------------------------------------------------------|
A----------------------------------------------------------|
E-4444---4444---4444---4444---4444-------------------------|

G-------------------------------------------------|
D-------------------------------------------------|
A-----6-------6--------6--------------------------|
E--44--4---44---4---44---4------------------------|

Bridge

G------------------------3-------------------------|
D---------222222---5-3-5---5-4-3 some random fill--|
A-------3------------------------------------------|
E-00-22--------------------------------------------|

10.ZEE DEVEEL

Intro

G|----------|
D|----------|
A|----------|
E|------12\-|


Verse

G|---------|---------|
D|---------|------6--|
A|---------|---4-----|
E|3\-------|0-------0|


Prechorus

G|---------|----------|---------|---------|---------|----------|---------|---------|
D|---------|----------|---------|7--------|---------|----------|---------|---------|
A|4~-------|4-6h7-6---|---------|---7-----|4~-------|4-6h7-6---|------4--|---------|
E|---------|--------7-|5~-------|------5--|---------|--------7-|5--7-----|2--4--5--|


Chorus

G|----------|----------|----------|---------| x3
D|----------|----------|----------|---------|
A|----------|6--6--66-6|----------|---------|
E|0--0--00-0|----------|5--5--55-5|0--3--3--|

G|----------|----------|----------|---------|
D|----------|----------|----------|---------|
A|----------|6--6--66-6|----------|---------|
E|0--0--00-0|----------|5--5--55-5|0--3--0--|


-> play Verse again


Prechorus

G|---------|----------|---------|---------|---------|----------|---------|---------|
D|---------|----------|--------x|7h9-7----|---------|----------|---------|---------|
A|4~-------|4-6h7-6---|---------|------7--|4~-------|4-6h7-6---|------4--|---------|
E|---------|--------7-|5~-------|---------|---------|--------7-|5--7-----|2--4--5--|


Chorus

G|----------|----------|----------|---------| x3
D|----------|----------|----------|---------|
A|----------|6--6--66-6|----------|---------|
E|0--0--00-0|----------|5--5--55-5|0--3--3--|

G|----------|----------|----------|  |---------|---R---| x3 |---------|
D|----------|----------|----------|  |---------|---E---|    |---------|
A|----------|6--6--66-6|----------|  |---------|---S---|    |---------|
E|0--0--00-0|----------|5--5--55-5|  |0--3--0--|---T---|    |0--3--0--|


Interlude

G|---------|---------| x12 |----------|---------| X4
D|---------|------6--|     |----------|------6--|
A|---------|---4-----|     |----------|---4-4---|
E|3~-------|0-------0|     |3--33-33-3|0-0-----0|

G|---------|--R--| x4
D|---------|--E--|
A|---------|--S--|
E|3\-------|--T--|


Chorus

G|----------|----------|----------|---------| x3
D|----------|----------|----------|---------|
A|----------|6--6--66-6|----------|---------|
E|0--0--00-0|----------|5--5--55-5|0--3--3--|

G|----------|----------|----------|---------|--R--|---------|
D|----------|----------|----------|---------|--E--|---------|
A|----------|6--6--66-6|----------|---------|--S--|---------|
E|0--0--00-0|----------|5--5--55-5|0--3--0--|--T--|0--3--0~-|

11.MADE FOR TV MOVIE

Verse

G --------------------------------------|
D ---------1-1-1-1---------1-1----------|
A -3-3-3-3---------3-3-3-3-----1-1------| x4
E ---------------------------------3-3--|

Chorus x2
G -----------------|
D -----------------|
A -----------------|
E -3-3-3-3-3-3-5-5-|

G -----------------|
D -----------------|
A ---------------2-|
E -0-0-0-0-0-2-3---|

G -----------------------|
D ---------------0-0-----|
A -3-3-3-3-3-3-3-----1-1-|
E -----------------------|


Verse x6
G -------------------------------------|
D ---------1-1-1-1---------1-1---------|
A -3-3-3-3---------3-3-3-3-----1-1-----|
E ---------------------------------3-3-|

Chorus x4
G -----------------|
D -----------------|
A -----------------|
E -3-3-3-3-3-3-5-5-|

G -----------------|
D -----------------|
A ---------------2-|
E -0-0-0-0-0-2-3---|

G -----------------------|
D ---------------0-0-----|
A -3-3-3-3-3-3-3-----1-1-|
E -----------------------|

Bridge x4

G ---------------------|
D ---------------------|
A -3/4/3-1-------1-----|
E ---------3-0-3---3-0-|

G -----------------------------|
D -----------------------------|
A -3-3/4/3-1-------1-----0-0-0-|
E -----------3-0-3---3-0-------|

12.SMILE LINES

Intro

G|7--7--7-|-7--7-7-7-7-7-7-7-|5h7--5--4h5-|-4--2--0--|--------|
D|--------|------------------|------------|----------|--------|
A|--------|------------------|------------|----------|--------|
E|--------|------------------|------------|----------|5\------|


Bridge

G|--------|--------------|---------------|--------------|---------------|
D|--------|--------------|---------------|--------------|---------------|
A|--------|--------------|---------3-3---|--------------|---------5-5---|
E|------0-|5-5--0-3-3--0-|5-5--0-3-----0-|5-5--0-3-3--0-|5-5--0-3-----0-|

G|-------------|-------------------|
D|-------------|---5--5h7-5--5-7---|
A|-------------|5h7--7-----7-----5-|
E|5-5--0-3-3-0-|-------------------|


Verse

G|---5-4------|---5-4----------| x3 |---5-4-------|-----------------|
D|5h7----5----|5h7----5-------x|    |5h7----5-----|-----------------|
A|----------7-|---------7-x-5--|    |----------7--|7-5-5-3-3-2-2----|
E|------------|----------------|    |-------------|--------------3~-|

G|------------|----------------| x3 |------------|--------------------|
D|------------|----------------|    |------------|--------------------|
A|---3-2------|---3-2-----3-5--|    |---3-2------|5h7-5-5-3-3-5-5-5-5-|
E|3h5----3--0-|3h5----3-0-----x|    |3h5----3--0-|--------------------|


Chorus

G|----------------|-------------|-----------------|------------|
D|----------------|--------575--|-----------------|--------7---|
A|3-3-3-3-3-3-3---|-----------75|3--3-3-3-3-3-3---|5-5-5-4-----|
E|--------------0-|3-3-0-5------|---------------0-|----------5-|

G|-----------------|------------|-----------------|---------------|
D|-----------------|------------|-----------------|---------------|
A|3--3-3-3-3-3-3---|------------|---------------3-|5-5-5-5-5-5-5--|
E|---------------0-|3-3-3-5-3-2-|1--1-1-1-1-1-1---|--------------0|


Bridge

G|--------------|---------------|--------------|-----------------5-|
D|--------------|---------------|--------------|---5--5h7-5--5-7---|
A|--------------|---------5-5---|--------------|5h7--7-----7-------|
E|5-5--0-3-3--0-|5-5--0-3-----0-|5-5--0-3-3--5-|-------------------|


-> play Verse again


Chorus

G|----------------|-------------|-----------------|------------|
D|----------------|--------575--|-----------------|--------7---|
A|3-3-3-3-3-3-3---|-----------75|3--3-3-3-3-3-3---|5-5---4-----|
E|--------------0-|3-3-0-5------|---------------0-|----0-----5-|

G|-----------------|------------|-----------------|---------------|
D|-----------------|------------|-----------------|---------------|
A|3--3-3-3-3-3-3---|------------|---------------3-|5-5-5-5-5-5-5--|
E|---------------0-|3-3-3-5-3-2-|1--1-1-1-1-1-1---|--------------0|

G|----------------|-------------|-----------------|------------|
D|----------------|--------575--|-----------------|--------7---|
A|3-3-3-3-3-3-3---|-----------75|3--3-3-3-3-3-3-3-|5-5-5-4-----|
E|--------------0-|3-3-0-5------|-----------------|----------5-|

G|-----------------|------------|-----------------|--------------|
D|-----------------|------------|-----------------|--------------|
A|3--3-3-3-3-3-3---|------------|---------------3-|5-5-5-5-5-5-5-|
E|---------------0-|3-3-3-5-3-2-|1--1-1-1-1-1-1---|--------------|


Interlude

G|---R---| x2 |----------------|--------------|----------------|----------------| x4
D|---E---|    |----------------|--------------|----------------|----------------|
A|---S---|    |3-3-3-3-3-3-3---|--------------|--------------3-|5-5-5-5-5-5-5---|
E|---T---|    |--------------1-|4-4-4-4-4-3-2-|1-1-1-1-1-1-1---|--------------3-|

G|--------|--------|--------|--------| repeat and fade out
D|--------|--------|--------|--------|
A|3--3--3-|--------|--------|5--5--5-|
E|--------|4--4--4-|5--5--5-|--------|


-> play 2nd Chorus again


Outro

G|---R---| x2  |-------------|-----|
D|---E---|     |-------------|-----|
A|---S---|     |-------------|3~---|
E|---T---|     |--3-3--3---3-|-----|

13.HERE IN MY ROOM

Verse (No bass during first verse):

G|-----------------------------------------------|
D|-----------------------------------------------|
A|-----------------------------------------------|
E|-8--8-11--4-44--11-8-88-11-4-44-6-8-88-11-4-44-| <-- eleven, not one one!


Pre-Chorus:

G|-----------------------------|
D|-----------------------------|
A|-----------------------------|
E|-2--22--2--22--2--22--2--22--|


Chorus Ver. 1:

G|-------------------------------|
D|---------------------------3-5-|
A|-3--6------------------3-6-----|
E|-------4--4-1---1-4--6---------|


Chorus Ver. 2:

G|--------------------------------|
D|----------------------------3-5-|
A|-3-33-------------------3-6-----|
E|-------4-44--1-11--4--6---------|

14.LEECH

Intro/Verse
|------------------------------------------------------|
|------------------------------------------------------|X2
|-----------------5-5-5-5h7-7-----------------5-5h7----|
|-7-7-X-X-X-X-3-3-------------7-7-X-X-X-X-3-3------0--0|

Variation. only in the last time around during intro.
|-----------------|
|-----------------|
|-----------------|
|-7-7-X-X-X-X-3-3/|

Pre-chorus
|--------------------------------------------------------|
|--------------------------------------------------------|X2
|--------------------------------------------------------|
|-9-9-9-9-9-9-12-12-12-12-12-12-5-5-5-5-5-5-5-5-5-5-5-5-5|
then...
|---------------------------------------------------------|
|---------------------------------------------------------|X2
|---------------------------------------------------------|
|-9-9-9-12-12-11-12-12-12-11-11-12-5-5-5-5-5-5-5-5-5-5-5-5|

Chorus
|-----------------------------------------------------------------------------------|
|-----------------------------------------------------------------------------------|
|-----------------------------------------------------------------------------------|
|-2-0-2-0-2-0--2-0-2-0-2-0--2-0-2-0-2-0--2-0-2-0-2-0--2-0-2-0-2-0--2-0-2-0-2-0--2-0-|

---------------------------|
---------------------------|X2
----------------------4-4-4|
2-0-2-0--2-0-2-0-2-0-------|

Heavy part
|------------------------|
|-----------------------2| Do this how ever many times
|------0-2-0---------0h2-|
|-2-0-2------0-2-0-2-----|
Comments