Incubus - A Certain Shade Of Green Acoustic Chords & Tabs

 

A Certain Shade Of Green Acoustic Chords & Tabs

Incubus Chords & Tabs

Version: 2 Type: Tab 0 ratings
1 star 2 stars 3 stars 4 stars 5 stars
comments

A Certain Shade Of Green Acoustic Tab

This is the solo of the acoustic version of a Certain Shade of Green, this
song is so relaxing that's why I love to tab it! Hope You like it!!!!

Standard tunning:EADGBE
Tabbed by:Mathew A.(RoCk3r_GuItArIsT)
Email me:rock3r_guitarist@yahoo.com(comments or correction)
[ Tab from: http://www.guitartabs.cc/tabs/i/incubus/a_certain_shade_of_green_acoustic_tab_ver_2.html ]
|-------12-10---------------------------------------------------|
|------------12-10--12-10--------------------------7------------|
|5h6-5h6-----------------11--11h12-11-9-11-9-7--7h9--9-7-9-7-9--|
|---------------------------------------------------------------|
|---------------------------------------------------------------|
|---------------------------------------------------------------|

|-----------------------9--9--9991012--12-10-9--10-9--9h10p9------------------------------------|
|----------------------10-10---------------------------------12h13-15-12-10h12-10h12--8888888---|
|10--10/12-10-10-9-9-7/-------------------------------------------------------------------------|
|-----------------------------------------------------------------------------------------------|
|-----------------------------------------------------------------------------------------------|
|-----------------------------------------------------------------------------------------------|
Comments