Incubus - 11 Am Chords & Tabs

 

11 Am Chords & Tabs

Incubus Chords & Tabs

Version: 8 Type: Tab 0 ratings
1 star 2 stars 3 stars 4 stars 5 stars
comments

11 Am Tab

   
-------------------------------------------------------------------------------
			     11am - Incubus
-------------------------------------------------------------------------------

By:Szey
gonline13@hotmail.com


Intro		       3x
e|-----------------------|---------------------------------------------------|
B|------0----------------|------0--------------------------------------------|
G|------4----------------|------4--------------------------------------------|
D|2-x-x-2--------2p0---0-|2-x-x-2----0-4--0-0h2p0---0------------------------|
A|2-x-x-2----3-----------|2-x-x-2--0--------------3--------------------------|
E|0-x-x----3---3-----3---|0-x-x---------3------------------------------------|

Chorus 
e|---------------------------------------------------------------------------|
B|------0-----------------------0--------------------------------------------|
G|------4--0-0-0-0--------------4--------------------------------------------|
D|2-x-x-2--2-2-2-2p0---0--2-x-x-2---0-4---0-0h2p0---0------------------------|
A|2-x-x-2--3-3-3-3--------2-x-x-2-0---------------3--------------------------|
E|0-x-x----3-3-3-3---3----0-x-x---------3------------------------------------|

e|---------------------------------------------------------------------------|
B|------0-----------------------0--------------------------------------------|
G|------4--0-0-0-0--------2-----4--------------------------------------------|
D|2-x-x-2--2-2-2-2p0---0--2-x-x-2--2--0p2h0---0------------------------------|
A|2-x-x-2--3-3-3-3--------0-x-x-0--3-----------------------------------------|
E|0-x-x----3-3-3-3---3----x-x-x-x--3--------3--------------------------------|


Verse		    2x
e|--------------------|------------------------------------------------------|
B|---0-0-0~-----------|---0-0-0~---------------------------------------------|
G|---4-4-4------------|---4-4-4----------------------------------------------|
D|2--2-2-2--2--2p0---0|2--2-2-2--------2p0---0---4--4--0h2p0---0-------------|
A|2--2-2-2--3---------|2--2-2-2----3-------------5--5------------------------|
E|0---------3------3--|0---------3---3-----3-----5----------3----------------|
[ Tab from: http://www.guitartabs.cc/tabs/i/incubus/11_am_tab_ver_8.html ]
e|--------------------------------------------------------------------------|
B|---0-0-0~----------------0-0-0~-------------------------------------------|
G|---4-4-4-----------------4-4-4--------------------------------------------|
D|2--2-2-2--2--2p0---0--2--2-2-2--------2p0---0-----------------------------|
A|2--2-2-2--3-----------2--2-2-2----3---------------------------------------|
E|0---------3------3----0---------3---3-----3-------------------------------|

e|--------------------------------------------------------------------------|
B|---0-0-0~-----------------------------------------------------------------|
G|---4-4-4------------------------------------------------------------------|
D|2--2-2-2--2--2p0---0--4--4--0h2p0---0-------------------------------------|
A|2--2-2-2--3-----------5--5------------------------------------------------|
E|0---------3------3----5----------3----------------------------------------|

Pre-chorus
e|--------------------------------0-----0-00-00-00----000----000------------|
B|---------------------------------0----0-00-00-00----000----000------------|
G|---4--4-4--4--4----4--4-4--4------4---4-44-44-44--4-444--2-222------------|
D|-2--2----2--2----2--2----2--2------2--2-22-22-22--5-555--3-333------------|
A|0-0--0----0--0--3-3--3----3--3------0-0-00-00-00--5-555--3-333------------|
E|--------------------------------------------------3-333--1-111------------|

Bridge  8x   
e|-------|--00-000-000--0--0--0---------------------------------------------|
B|-------|--00-333-333---3--3-----------------------------------------------|
G|4-4/-22|1-11-111-111-1--1--1----------------------------------------------|
D|5-5/-33|2-22-222-222------------------------------------------------------|
A|5-5/-33|2-22-222-222------------------------------------------------------|
E|3-3/-11|0-00-000-000------------------------------------------------------|

End with
e|-|
B|0|
G|4|
D|2|
A|2|
e|-|


The song goes like this:

- Intro
- Chorus
- Verse
- Pre-chorus
- Chorus
- Verse
- Pre-chorus
- Chorus
- Bridge
- Chorus
============================================================
Comments