Incubus - 11 Am Chords & Tabs

 

11 Am Chords & Tabs

Incubus Chords & Tabs

Version: 2 Type: Tab 0 ratings
1 star 2 stars 3 stars 4 stars 5 stars
comments

11 Am Tab

   
Song:      11AM
Group:     Incubus
Tabbed By: Shawn McKay (ShawnyM1010@hotmail.com)
Tuning:    Standard (E A D G B E)

I guess you can never get a song perfect on the first try, 
with that in mind, here's my first try. 

INTRO\VERSE
3x                             1x
|-----------------------------|------------------------------|
|-------8---8-----------------|-------7---7------------------|
|-------0---0-------0-----0---|-------0---0--------4h5p4---4-|
|---9---9-9-9---5-----5-------|---7---7-7-7----5---------5---|
|-7-7-7-7-7-7-3---3-----3-----|-5---5-5-5-5--3---3-----------|
|-0---0-----------------------|------------------------------|

note - sometimes Mike plays it slightly differently
[ Tab from: http://www.guitartabs.cc/tabs/i/incubus/11_am_tab_ver_2.html ]
PRECHORUS
|-------------------|-0-----0-3-3-3-3-|
|-0---0---0-0---0---|-0-----0-0-0-0-0-|
|-4-4-4-4-4-4-4-4-4-|-4-4-4-4-0-0-0-0-|
|---4---4-----4-----|-4-4-4-4-0-0-0-0-|
|-------------------|-2-2-2-2-2-2-2-2-|
|-------------------|---------3-3-3-3-|

CHORUS (Chords progression)
|-0-2-0-0-0-2-0-|
|-0-3-5-0-0-3-3-|
|-0-2-4-2-0-2-0-|
|-2-0-2-2-2-4-2-|
|-2-0---0-2-5-3-|
|-0-----0-0---0-|

INTERLUDE
|-----------0-|-0-0-0-0-0-0-0-0-0-0-0-------------------|
|-----0-----0-|-0-0-0-0-0-0-0-0-0-0-0-8-8-8-8-8-8-8-8-8-|
|-------4---4-|-2-2-2-2-2-2-2-2-2-2-2-0-0-0-0-0-0-0-0-0-|
|---4-----4-4-|-2-2-2-2-2-2-2-2-2-2-2-9-9-9-9-9-9-9-9-9-|
|-2---------2-|-0-0-0-0-0-0-0-0-0-0-0-7-7-7-7-7-7-7-7-7-|
|-------------|-0-0-0-0-0-0-0-0-0-0-0-------------------|

Email me any corrections or comments.


Comments