Incubus - 11 Am Chords & Tabs

 

11 Am Chords & Tabs

Incubus Chords & Tabs

Version: 1 Type: Tab 1 rating
1 star 2 stars 3 stars 4 stars 5 stars
comments

11 Am Tab

11 am by incubus
tabbed by owen jones
email me at hoju2@Hotmail.com with comments/suggetsions

|---2-2-2----------------|---2-2--------------------------
|---0-0-0----------------|---0-0--------------------------
|------------------------|--------------------------------
|-2---------0---0/2\0---0|-2-----------0-4-5---0/2\0------
|-2------------3------2--|-2---------3---------------2-0--
|-0-------3--------------|-0------------------------------

verse
[ Tab from: http://www.guitartabs.cc/tabs/i/incubus/11_am_tab.html ]
|---2-2-2----------------|---------------------------------
|---0-0-0----------------|---------------------------------
|------------------------|---------------------------------
|-2---------0---0/2\0---0|-------------0-4-5------0/2\0----
|-2------------3------2--|-7-7-7-7-3-----------------2-0---
|-0-------3--------------|-5-5-5-7-------------------------

pre chorus
for a while:  then:
|--------       |--
|--------       |--
|---4---4       |-4
|-2---4--       |-4
|--------       |-2
|--------       |--

chorus
|---2*--2----
|---3---3-5--
|---2---2-4-2
|-2---2---2-2
|-2---2------
|------------
* you could add a G with your pincky on the high e string

bridge
a few times  then: for a while
|-------0      |-0-0-0-0-0
|-------0      |-0-0-0-0-0
|-----4-4      |-2-2-2-2-2
|---4---4      |-2-2-2-2-2
|-2-----2      |-0-0-0-0-0
|-------0      |-0-0-0-0-0



Comments