Incubus - 11 Am Chords & Tabs

 

11 Am Chords & Tabs

Incubus Chords & Tabs

Version: 1 Type: Bass Tab 0 ratings
1 star 2 stars 3 stars 4 stars 5 stars
comments

11 Am Bass Tab

   
Song: 11 AM
Band: Incubus
Bassist: Dirk Lance
Tabbed by: Jason (Supermn1161@aol.com)
Standard Tuning: E A D G, But you can put it in Drop D
because Dirk does play a five string.

This is the Intro, the chorus, and the Outro.
G/--------------------------------------------------------
D/--------------------------------------------------------
A/------333333--------55553333--------333333-000000-333333
E/00000--------000000----------000000---------------------

Verse: The three on "E" Is play sometimes. Id listen 
to the song to figure that out.
G/----------------------------------------------
D/----------------------------------------------
A/-----3-------------3-------------3-------3-0-3
E/-0-3----3-0--0-0-3----3-0--0-0-3----3-0-------


Prechorus:
G/----------
D/----------
A/-3-0-3----
E/-------3-1
[ Tab from: http://www.guitartabs.cc/tabs/i/incubus/11_am_btab.html ]
Bridge: THis is the easiest part of the song.
D/---------------------------
G/---------------------------
A/---------------------------
E/-1-1-1-1-1-1-1-1-0-0-0-0-0-

Well, thats it. Any questions email me.
===========Incubus: 11 AM
Album: Morning View

Standard Tuning

Intro/Chorus/Outro
G:---------------------------------------------------------
D:---------------------------------------------------------
A:-------333333--------55553333--------333333-000000-333333
E:000000--------000000----------000000---------------------

Verse
G:-----------------------------------------------
D:-----------------------------------------------
A:------3-------------3-------------3-------3-0-3
E:0-0/3---(30)-0-0/3---(30)-0-0/3---(30)------
(The 30 on the E is optional, its only played sometimes)

Prechorus (notes ring out)
G:-----------
D:-----------
A:0-3-0-3----
E:--------3-1

Bridge
G:------------------------
D:------------------------
A:------------------------
E:3-1-[repeat 8x]-00000000

That's pretty much it, pretty simple song.
Lemme know if you have any ? or comments
lpbrown@iastate.edu
INCUBUS ROCKS!
Comments