Incognito - Wild And Peaceful Chords & Tabs

 

Wild And Peaceful Chords & Tabs

Incognito Chords & Tabs

Version: 1 Type: Bass Tab 0 ratings
1 star 2 stars 3 stars 4 stars 5 stars
comments

Wild And Peaceful Bass Tab

Intro/Chorus

G:|-----------------|-----------------|-----------------|
D:|-----------------|---------3-------|-----------------|
A:|-6-4-6-----------|-6-4-6-----3-----|-6-4-6-----------|
E:|---------1---x1--|-------------x1--|---------1---x1--|

G:|-----------------|-----------------|-----------------|
D:|-----------------|---------3-------|---------3-------|
A:|-2-2-2h4--6---3--|-6-6-------3-----|-6-4-6-----------|
E:|---------4-4-1-1-|-------------x1--|-----------xxx0h1|

G:|-----------------|-----------------||
D:|-----------------|---4-------------||
A:|-6-4-6-----------|-2---2----6----3-||
E:|---------1---x1--|--------4----1---||

Pre-verse
[ Tab from: http://www.guitartabs.cc/tabs/i/incognito/wild_and_peaceful_btab.html ]
G:|---8------1010---|--------------6-8|---8------1010---|
D:|----8---10----10-|----------66-6---|----8---10----10-|
A:|6-6--6-8--------8|--6-----34-------|6-6--6-8--------8|
E:|-----------------|4--4-6-6---------|-----------------|

G:|------------x-68-||
D:|-------6-88------||
A:|--6--------------||
E:|4--4-6-----------||

Verse

G:|-----8-----------|-----------------|-----8-----------|
D:|-6-8-------------|-----------4---6-|-6-8-------------|
A:|-------6---------|-------6---------|-------6---------|
E:|-----------7x7---|-2-2-4---x2--x4--|-----------7x7---|

G:|-----------------||
D:|-----------------|| repeat until change
A:|-------6------8-6||
E:|-2-2-4----4-6----||

Bridge

G:|-----------------|---------------------||
D:|--------4---4-2--|4-2----------4---1-2-||
A:|--xx4h6---x4-----|----x0-0h2--6--------||
E:|44-----2--------0|-----------4--2-2-2-0||
Comments