Incognito - Walking On Wheels Chords & Tabs

 

Walking On Wheels Chords & Tabs

Incognito Chords & Tabs

Version: 1 Type: Bass Tab 0 ratings
1 star 2 stars 3 stars 4 stars 5 stars
comments

Walking On Wheels Bass Tab

Intro (Remember The Time Signature)
  Drums 2 Bars
G:|-----------------|-----------------|--10--8----------|
D:|-----------------|-----------------|---------10--8---|
A:|-----------------|-----------------|-----------------|
E:|-----------------|-----------------|-----------------|

G:|-----------------||
D:|--10--8----------||
A:|---------10--8---||
E:|-----------------||

Verse (Main Riff)Ad Lib.

G:|-----------------|-----------------|-----------------|
D:|---------10-8----|---------10-8----|---------10-8----|
A:|---10-10------10-|---10-10------10-|---10-10------10-|
E:|-8---------------|-8---------------|-8---------------|

G:|-----------------||
D:|---------10-8----||
A:|---10-10------10-||
E:|-8---------------||

Riff2

G:|-----------------|-----------------|-----------------|
D:|---------11------|---------10------|---------11------|
A:|---11-11----11---|---10-10----10---|---11-11----11---|
E:|-9-------------9-|-8-------------8-|-9-------------9-|

G:|-----------------||
D:|---------10------||
A:|---10-10----10---||
E:|-8-------------8-||

Break
[ Tab from: http://www.guitartabs.cc/tabs/i/incognito/walking_on_wheels_btab.html ]
G:|-----------------|-----------------|-----------------|
D:|-----11-----11---|-----10-----10---|-----9-----9-----|
A:|-----------------|-----------------|-----------------|
E:|--9------9-------|--8------8-------|--7-----7--------|

G:|-----9-----9-----|-----8-----8-----|-----------------|
D:|-----------------|-----------------|-----6-----6-----|
A:|--7-----7--------|--6-----6--------|-----------------|
E:|-----------------|-----------------|--4-----4--------|

G:|-----------------|-----6-----6-----||
D:|-----5-----5-----|-----------------||
A:|-----------------|--4-----4--------||
E:|--3-----3--------|-----------------||

   Let Note Ring.
G:|-----------------|-----------------|-----------------|
D:|-----------------|-----------------|-----------------|
A:|--3--------------|-----------------|-----------------|
E:|-----------------|-----------------|-----------------|

G:|--------5--------|-----------------|-----------------|
D:|-----5-----------|-----------------|-----------------|
A:|--3--------3-----|-----------------|-----------------|
E:|-----------------|-----------------|-----------------|

G:|-----------------||
D:|-----------------||
A:|-----------------||
E:|-----------------||
Comments