Incognito - Smiling Faces Chords & Tabs

 

Smiling Faces Chords & Tabs

Incognito Chords & Tabs

Version: 1 Type: Bass Tab 0 ratings
1 star 2 stars 3 stars 4 stars 5 stars
comments

Smiling Faces Bass Tab

Intro
G:|-------x---------|-----------------|---------14/19---|
D:|-----------------|-----------------|-----------------|
A:|-----------------|-----------------|-----------------|
E:|----------5/7----|-----------------|-----------------|

G:|-----------------||
D:|-----------------||
A:|-----------------||
E:|-----------------||

Verse
G:|---7-------------|---7-------------|-----------------|
D:|-----------------|-----------------|---5-------------|
A:|-5------------3--|-5-----3-5-------|-------3h5-5-----|
E:|----x-3-----5----|-----5-------4---|-3---3--------1-2|

G:|-----------------|-------10--------|-------8---------|
D:|---5---x5--3-2---|----8------------|----8------------|
A:|-----5-----------|-6---------------|-6-----------3---|
E:|-3---------------|-----------6-8---|---------3h5-----|

G:|----7------------|----7------------||
D:|-----------------|-----------7-----||
A:|-5----------3----|-5---------------||
E:|------3--5-------|------345--------||

Chorus
G:|----7------------|----7------------|----5------------|
D:|-----------------|-------x5--5-----|-----------------|
A:|-5-----------3---|-5----------0-1-2|-3---------------|
E:|------x3--5------|-----------------|------x1---1-3---|

G:|-----------------||
D:|-----------------||
A:|-1-------0----3-4||
E:|-----------------||
[ Tab from: http://www.guitartabs.cc/tabs/i/incognito/smiling_faces_btab.html ]
2nd Chorus leads into break like so...
G:|----7------------|----7------------|----5------------|
D:|-----------------|-------x5--5-----|-----------------|
A:|-5-----------3---|-5----------0-1-2|-3---------------|
E:|------x3--5------|-----------------|------x1--1/111-|

G:|-----------------||
D:|-----------------||
A:|-5---------------||
E:|---2-3-4-5-------||

Break(Unison & Drum solo)
G:|-7---------------|-----------------||
D:|---5-6-8-9-------|-----------------||repeat x4
A:|-----------------|-----------------||
E:|-----------------|-----------------||
		~
G:|-----------7/14--||
D:|-------8-7-------||
A:|-----7-----------||
E:|-5-8-------------||

Follow the structure until you get to the sax solo and then
it gets really funky!
Basically you play the chorus, but a semi-tone lower.
G:|----6------------|----6------------|----4------------|
D:|-----------------|------x4----4----|-----------------|
A:|-4-----------2---|-4------------0-1|-2---------------|
E:|------x2--4------|-----------------|-----x0--0---2---|

G:|-----------------||
D:|----7------------||repeat x2
A:|-----------2-3---||
E:|-5-----4---------||

Then resume chorus as follows.w/ad-libs
G:|-----------------|----7------------|----5------------|
D:|-----------------|------x5--5------|-----------------|
A:|-5----------0----|-5----------0-1-2|-3------------0--|
E:|----0--2--3------|-----------------|------x1--3-4----|

G:|-----------------|-----------------|-----5--7--------|
D:|-----------------|-----------------|--5-7-----7---7-5|
A:|-1-------0-------|-5-7-8-7--5-7-8-7|-5----------5----|
E:|-----------------|-----------------|-----------------|

G:|----5------------|-----------------||
D:|-----------------|-----------------||
A:|-3---------------|-1-------0-------||
E:|------x1--1--3---|-----------------||
Comments