Incognito - Marrakech Chords & Tabs

 

Marrakech Chords & Tabs

Incognito Chords & Tabs

Version: 1 Type: Bass Tab 0 ratings
1 star 2 stars 3 stars 4 stars 5 stars
comments

Marrakech Bass Tab

Intro

G:|-------17--------|------------19--|--19---------19--|
D:|-----------------|----------------|-----------------|
A:|-10/15-----------|-15-------------|-----------------|
E:|-----------------|---------1/-----|-----------------|

G:|-----------------||
D:|-----------------||
A:|-----------6-8-6-||
E:|---13---8-------||

Pre-Verse

G:|-----------------|-----------------|-----------------|
D:|-----------------|-----------------|------8h10-------|
A:|-8-(8)---7-(7)---|-6-(6)---5-(5)---|-8-(8)-----7-(7)-|
E:|-----------------|-----------------|-----------------|

G:|-----------------||
D:|-----------------|| x2
A:|-6-(6)--5-(5)-6-7||
E:|-----------------||

Verse

G:|-----------------|-----------------||
D:|-----------------|-----------------|| x3 w/ad-lib.
A:|-8-(8)---7-7-(7)-|-6-(6)---5-5-(5)-||
E:|-----------------|-----------------||

G:|-----------------|-----------------||
D:|------8h10-------|-----------------|| to bridge
A:|-8-(8)----7-7-(7)|-6-(6)---5-5-(5)-||
E:|-----------------|-----------------||

Bridge(ad-lib.)
[ Tab from: http://www.guitartabs.cc/tabs/i/incognito/marrakech_btab.html ]
G:|-----------------|-----------------|-----------------|
D:|-------8---------|-----------------|-----------------|
A:|---------8-------|----------6-8-6--|-8-(8)---7-(7)---|
E:|-6-6-------6-----|-8------8--------|-----------------|

G:|-----------------|-----------------|-----------------|
D:|-----------------|------8h10-------|-----------------|
A:|-6-(6)--5-(5)-6-7|-8-(8)-----7-(7)-|-6-(6)---5-(5)---|
E:|-----------------|-----------------|-----------------|

Chorus

G:|-----------------|-----------3-----|-----------------|
D:|--------------2--|-3-3---------3---|-----------------|
A:|-4-4---3-3--3----|-------1-1-----1-|-4-4---3-3--3----|
E:|-----------------|-----------------|-----------------|

G:|-----------------||
D:|-3---------------||
A:|---3-------------||
E:|-----1-2---------||

G:|-----------------||
D:|-------6---------||
A:|---6-8---66--66--||
E:|-8---------------||

M8

G:|-----------------|-----------------||
D:|-----------------|-----------------|| there are many ad-lib's.
A:|-----------------|-----------------|| in this part, so just jam
E:|-6---6---6----6--|-3----3------3---|| in Bb minor & G minor.
Comments