Incognito - Dont You Worry Bout A Thing Chords & Tabs

 

Dont You Worry Bout A Thing Chords & Tabs

Incognito Chords & Tabs

Version: 1 Type: Bass Tab 0 ratings
1 star 2 stars 3 stars 4 stars 5 stars
comments

Dont You Worry Bout A Thing Bass Tab

Intro(8 Bars of violins & Congas)

G:|-----------------|-----------------|-----------------|
D:|-----------------|-----------------|-----------------|
A:|-----------------|-----------------|----------------4|
E:|---------6---6--6|---------4---4-43|-2---2---2---2-2-|
B:|-4---4-----------|-4---4-----------|-----------------|

G:|-----------------||
D:|-----------------||
A:|-2---2-----------|| x4
E:|---------0---0---||
B:|----------------2||

Verse

G:|-----------------|-----------------|-----------------|
D:|-----------------|-----------------|-----------------|
A:|-----------------|-----------------|----------------4|
E:|---------6---6--6|---------4---4-43|-2---2---2---2-2-|
B:|-4---4-----------|-4---4-----------|-----------------|

G:|-----------------|-----------------|-----------------|
D:|-----------------|-----------------|-----------------|
A:|-2---2-----------|-----------------|-----------------|
E:|---------0---0---|---------6---6--6|---------4---4-43|
B:|----------------2|-4---4-----------|-4---4-----------|

G:|-----------------|-----------------||
D:|-----------------|-----------------||
A:|----------------4|-2---2---2-2-----||
E:|-2---2---2---2-2-|---------------21||
B:|-----------------|-----------------||

Chorus 1

G:|-----------------|-----------------|-----------------|
D:|-----------------|-----------------|-----------------|
A:|-----------------|--------------2h4|-----------------|
E:|-0---0---0-0---01|-2---2---2x2-----|-2---2---2x2---45|
B:|-----------------|-----------------|-----------------|

G:|-----------------|-----------------|-----------------|
D:|-----------------|-----------------|-----------------|
A:|-----------------|-----------------|-----------------|
E:|-6---6---6x6----7|---------------23|-4---4---4x4-----|
B:|-----------------|-0---0---0x0-----|---------------43|

G:|-----------------|-----------------|-----------------||
D:|-----------------|-----------------|--------------4--||
A:|-----------------|-----------------|-----------------||
E:|---------------01|-2---2---2-2---45|-6---6---6x6-----||
B:|-2---2---2-2-----|-----------------|-----------------||

Pre-Verse 1

G:|-----------------|-----------------|-----------------|
D:|-----------------|-----------------|-----------------|
A:|-----------------|-----------------|----------------4|
E:|---------6---6--6|---------4---4-43|-2---2---2---2-2-|
B:|-4---4-----------|-4---4-----------|-----------------|

G:|-----------------||
D:|-----------------||
A:|-2---2-----------||
E:|---------0---0---||
B:|----------------2||

Chorus 2
[ Tab from: http://www.guitartabs.cc/tabs/i/incognito/dont_you_worry_bout_a_thing_btab.html ]
G:|-----------------|-----------------|-----------------|
D:|-----------------|-----------------|-----------------|
A:|-----------------|--------------2h4|-----------------|
E:|-0---0---0-0---01|-2---2---2x2-----|-2---2---2x2---45|
B:|-----------------|-----------------|-----------------|

G:|-----------------|-----------------|-----------------|
D:|-----------------|-----------------|-----------------|
A:|-----------------|-----------------|-----------------|
E:|-6---6---6x6----7|---------------23|-4---4---4x4-----|
B:|-----------------|-0---0---0x0-----|---------------43|

G:|-----------------|-----------------|-----------------|
D:|-----------------|-4-----4-3-----3-|-2-----2-1-----1-|
A:|--------------4h6|----4-------3----|----2-------1----|
E:|-----------------|-----------------|-----------------|
B:|-2---2---2-2-----|-----------------|-----------------|

G:|-----------------|-----------------|-----------------|
D:|-----------------|-----------------|-4-----4-3-----3-|
A:|-5-----5-4-------|---------------4-|----4-------3----|
E:|----5-------4--2-|-2---2x2---2-----|-----------------|
B:|-----------------|-----------------|-----------------|

G:|-----------------|-----------------|-----------------||
D:|-2-----2-1-----1-|-----------------|-----------------||
A:|----2-------1----|-5-----5-4-------|-----------------||
E:|-----------------|----5-------4--2-|-2---------------||
B:|-----------------|-----------------|-----------------||

M8

G:|-----------------|-----------------|-----------------|
D:|-----------------|-----------------|-----------------|
A:|-----------------|-----------------|-----------------|
E:|---------6---6--6|---------4---4---|-----------------|
B:|-4---4-----------|-4---4---------76|-5---5---5-5---34|

G:|-----------------||
D:|-----------------||
A:|-----------------|| x2
E:|-------------7---||
B:|-5---5---5-5---5-||

Pre-Verse 2

G:|-----------------|-----------------|-----------------|
D:|-----------------|-----------------|-----------------|
A:|-----------------|-----------------|----------------4|
E:|---------6---6--6|---------4---4-43|-2---2---2---2-2-|
B:|-4---4-----------|-4---4-----------|-----------------|

G:|-----------------|-----------------|-----------------|
D:|-----------------|-----------------|-----------------|
A:|-2---2-----------|-----------------|-----------------|
E:|---------0---0---|---------6---6--6|---------4---4-43|
B:|----------------2|-4---4-----------|-4---4-----------|

G:|-----------------|-----------------||
D:|-----------------|-----------------||
A:|----------------4|-2---2---2-2-----||
E:|-2---2---2---2-2-|---------------21||
B:|-----------------|-----------------||
Comments