Incognito - Colibri Chords & Tabs

 

Colibri Chords & Tabs

Incognito Chords & Tabs

Version: 1 Type: Bass Tab 0 ratings
1 star 2 stars 3 stars 4 stars 5 stars
comments

Colibri Bass Tab

Main Riff(verse)

G:|-----------------|-----------------|-----------------|
D:|-0-0-1-2---------|-----------------|-------0-1-2-----|
A:|-----------------|---5-3-5-5-------|-----------------|
E:|---------3-4-5---|-5---------1-3---|-3-2-1-----------|

G:|-----------------|-----------------|-----------------||
D:|-----------------|-----------------|-----5-3h4p3h4p--||
A:|-----------------|-3-4-5-5-5x------|-3-5-------------||
E:|-5-3-5x5---------|------------1-3--|-----------------||

There are many variations in this riff sometimes he adds fills
sometimes he leaves bars out. Listen to the record.

Interlude

G:|----------3-5----||
D:|---3-5--5--------||
A:|-5---------------||
E:|-----------------||

M8 (breakdown section)
[ Tab from: http://www.guitartabs.cc/tabs/i/incognito/colibri_btab.html ]
G:|-----------------|-----------------|-----------------|
D:|-0-0-1-2---------|-----------------|-------0-1-2-----|
A:|-----------------|-----------------|-----------------|
E:|---------3-4-5---|-----------------|-3-2-1-----------|

G:|-----------------|-----------------|-----------------||
D:|-----------------|-----------------|-----5-3h4p3h4p--||
A:|-----------------|-----------------|-3-5-------------||
E:|-5-3-5x5---------|-----------------|-----------------||

Riff 2(chorus)

G:|-----------------|-----------------|-----------------|
D:|-----------------|-----------------|-----------------|
A:|-----------------|-x5-3-5-5--------|-3-4-5-5-5x5-----|
E:|-3-3-x3x3--------|---------x3x3----|-----------------|

G:|-----------------|-----------------|-----------------|
D:|-----------------|-----------4h5---|-----------------|
A:|-3-4-5-355-------|-1-33-x3x3-------|-1-33-x3x3-------|
E:|----------5-4-3x3|-----------------|-----------------|

G:|-----------------|-----------------||
D:|-----------------|-----------------||
A:|-5-6-77-x7x7-----|-----------------||
E:|-----------------|-5-6-7-------19-||
Comments