Incognito - Centre Of The Sun Chords & Tabs

 

Centre Of The Sun Chords & Tabs

Incognito Chords & Tabs

Version: 1 Type: Bass Tab 0 ratings
1 star 2 stars 3 stars 4 stars 5 stars
comments

Centre Of The Sun Bass Tab

Intro (4 bar string intro...)

  4th bar
G:|----------------||-----------------|-----------------|
D:|----------------||-------8-6-------|-------8-98-6---|
A:|----------------||------------6----|-----------------|
E:|---------------2||-4-2-4-------4-2-|-4-2-4---------2-|

G:|-----------------|-----------------||
D:|-------8-6-------|-------8-98-----||
A:|------------6----|-----------------||
E:|-4-2-4-------4-2-|-4-2-4-------4-2||

Verse

G:|-----------------|-----------------|-----------------|
D:|-----------------|---------8/98-6-|-----------------|
A:|-----------4h6---|-----------------|-----------4-6---|
E:|-4-24-4-24-----2-|-4-24-4-4-------2|-4-24-4-24-----2-|

G:|-----------------||
D:|-------------4---|| repeat 2x
A:|----------4-6----||
E:|-4-24-4--4-4---2-||

Bridge

G:|-----------------|------------8----|-----------------|
D:|-----------------|-----------------|-----------------|
A:|-4-24-4-24-------|----------6--456-|--------------23-|
E:|-------------3-5-|-6-6-6-53-------2|-4-24-4-24-------|

G:|-------3-1-------|-----------------|-----------------||
D:|-----------4-----|-----------------|-----------------||
A:|-4-24--------3---|-----------7-9-7-|-6-----6-8-10----||
E:|--------------3-1|-0--x0--x0-------|---------------2-||
[ Tab from: http://www.guitartabs.cc/tabs/i/incognito/centre_of_the_sun_btab.html ]
Chorus

G:|-----------------|-------8---------|-----------------|
D:|-------8-6--6----|---------8-------|-----------------|
A:|-------------6-4-|-6-4-6-----x6-6-7|-8-8--6-8--6-8---|
E:|-4-2-4-----------|-----------------|-----------------|

G:|------------4-2--|-----------------|-----------------|
D:|-----------------|-------8-6-------|-----------------|
A:|------4----------|-------------2-3-|-4-4--4-----4-4--|
E:|-2--4---4--4-4--2|-4-2-4-----4-----|--------4-2------|

G:|-----------------|-----------------||
D:|--------4-2------|-----------------||
A:|-----x2-----2----|-4--4------------||
E:|-0-0----------0--|------001-2--3--2||

M8

G:|-----------------|-----------------|-----------------|
D:|-----------------|-----------------|-----4-x4/6-4----|
A:|-6-6-4-6-x6------|-6-6-4-6-x6------|-----------------|
E:|------------6-4--|-----------------|-2-2-------------|

G:|-----------------|-----------------|-----------------|
D:|----------4------|-----------------|-------------1112|
A:|------------9---|-6-6-4-6-x6------|-6-6-4-6-x-6-----|
E:|-2-2--2-2--------|------------6-4--|-----------------|

G:|-----------------|-----------------||
D:|13-13-13-13--1112|-13--------------||
A:|-----------13----|-----------------||
E:|-----------------|----11--------2-||
Comments