Incognito - Castles In The Air Chords & Tabs

 

Castles In The Air Chords & Tabs

Incognito Chords & Tabs

Version: 1 Type: Bass Tab 0 ratings
1 star 2 stars 3 stars 4 stars 5 stars
comments

Castles In The Air Bass Tab

Intro/Chorus

G:|-----------------|--------------7--|----7--7/9-------|
D:|-----------------|------------7----|--7--------9-----|
A:|------3--x5h7---x|-3-3---55-5----3/|5------------7-78|
E:|-3-3-------------|-----------------|-----------------|

		   ~
G:|---10/12-10-12-10|-----------------|-----------------|
D:|-----------------|-----------------|-----------------|
A:|-----------------|------3--x5h7---x|-3-3---55-5-----7|
E:|-1---------------|-3-3-------------|-----------------|

G:|-----------------|-----------------||
D:|-----------------|-----------------||
A:|-5------7--------|-----------------||
E:|-----------------|-8---------------||

Chorus
[ Tab from: http://www.guitartabs.cc/tabs/i/incognito/castles_in_the_air_btab.html ]
G:|-----------------|-----------------|-----------------|
D:|-----------------|-----------------|-----------------|
A:|------3--x5h7---x|-3-3---55-5------|-5-5------7------|
E:|-3-3-------------|-----------------|-----------------|

G:|-----------------|-----------------|-----------------|
D:|-----------------|-----------------|-----------------|
A:|-8---------------|------3--x5h7---x|-3-3---55-5------|
E:|-----8--5--3--1--|-3-3-------------|-----------------|

G:|-----------------|-----------------||
D:|-----------------|-----------------||
A:|-5-------7-------|-----------------||
E:|-----------------|-8---------------||

Verse

G:|-----------------|-----------------||
D:|---7---7/10---10-|-----------------|| Repeat W/variations
A:|-5---5------8----|---7---7/10---10-||
E:|-----------------|-5---5------8----||
Comments