In Flames - Worlds Within The Margin Chords & Tabs

 

Worlds Within The Margin Chords & Tabs

In Flames Chords & Tabs

Version: 1 Type: Tab 0 ratings
1 star 2 stars 3 stars 4 stars 5 stars
comments

Worlds Within The Margin Tab

Worlds Within The Margin -From In Flames' Whoracle
Tabbed By Mike Clagett -webmaster@tormentweb.com
[ Tab from: http://www.guitartabs.cc/tabs/i/in_flames/worlds_within_the_margin_tab.html ]
Tune To C
Guitar 1
|--------------------|---------------------------------------------|
|--------------------|---------------------------------------------|
|--------------------|---------------------------------------------|
|----7---9--7--7--5-7|--7---9--777-444-225-------------------------|
|---7--10--7--7--7---|-7--10--7---5---3----------------------------|
|-0--0---0--0--0-----|0--0---0-------------------------------------|
Guitar 2
|-----------------------|------------------------------------------|
|-----------------------|------------------------------------------|
|-----------------------|------------------------------------------|
|--------5-4------------|---------5--444--222--002-----------------|
|--7-5--7---5--5-7--5-7-|--7-5--7---5----3----0--------------------|
|-0----0--0---0----0----|-0----0-----------------------------------|
Next Part
Guitar 1
|------------------------------------------------------------------|
|-------5----------------------------------------------------------|
|----4-------------------------------------------------------------|
|---5-7--7---------------------------------------------------------|
|--7---------------------------------------------------------------|
|0-----0-----------------------------------------------------------|
Comments