In Flames - The Jesters Dance Chords & Tabs

 

The Jesters Dance Chords & Tabs

In Flames Chords & Tabs

Version: 1 Type: Tab 0 ratings
1 star 2 stars 3 stars 4 stars 5 stars
comments

The Jesters Dance Tab

   
Band: In Flames 
Song: The Jester's Dance
Album: The Jester Race

Tabbed By: John Romero
Tuning: 2 Steps Down (C F A# D# G C)

Guitar I
Intro
|-----------------------------------------------|
|-----------------------------------------------|
|----9-7---------9-7----------9-10-7-9-10-7-9---|
|--7-----10----------10-------------------------| x4
|--------------8-----------10-------------------|
|-----------------------------------------------|
Intro II
|-----------------------------------------------------|
|-----------------------------------------------------|
|----9-7-------9-7--------9-10-7----9-10-7-9-10-7-9---|
|--7-----10--------10---------------------------------| x2
|------------8---------10--------10-------------------|
|-----------------------------------------------------|

Guitar II (Over Intro II x2)
|----------------------------12-10-12---12-10-12----12-10-12-13-12-10-------
|-------------------------10----------13---------10-------------------12----
|-12~-------------------------------------------------------------------12~-
|--------10-12-9--9-7-------------------------------------------------------
|----/12--------------10----------------------------------------------------
|---------------------------------------------------------------------------
|----------------10/12~----|
|-6---6-8-6-8/10-----------|
|---9----------------------|
|--------------------------|
|--------------------------|
|--------------------------|
Guitar III (Over Intro II x2)
|---------------------------------------------------------------------------
|---------------------------13-12-13----13-12-13---13-12-13-15-13-12--------
|-------------------------9----------14----------9-------------------12-----
|-14~----10-12-9--9-7---------------------------------------------------12~-
|----/12--------------10----------------------------------------------------
|---------------------------------------------------------------------------
|--------------------------|
|----------------10-12/13~-|
|---------9----9-----------|
|-10-9-10---12-------------|
|--------------------------|
|--------------------------|
[ Tab from: http://www.guitartabs.cc/tabs/i/in_flames/the_jesters_dance_tab.html ]
Guitar IV
|------------------------------|
|------------------------------|
|-2----------------------------|
|-2--5--2--3----3--5--10--7----|
|-0--5--2--3----3--5--10--7----|
|----3--2--1----1--3--8---5----|

Guitar II
|------------------|
|-------3---3-5----|
|-5-4-5---5--------|
|------------------|
|------------------|
|------------------|
Guitar III
|------------------|
|------------------|
|-------4---4-5----|
|-7-5-7---7--------|
|------------------|
|------------------|

Guitar II
|------------------------------------------------------------------|
|-5----3-----5---5-----3-----5---6-----5-----3---------3-5-3-------|
|------------------------------------------------5-4-5-------5-4---|
|------------------------------------------------------------------| x2
|--0-0---0-0---0---0-0---0-0---0---0-0---0-0-----------------------|
|------------------------------------------------------------------|
   . .   . .   .   . .   . .   .   . .   . .
Guitar III
|------------------------------------------------------------------|
|------------------------------------------------------------------|
|-5----4-----5---5-----4-----5---7-----5-----4---------4-5-4-------|
|------------------------------------------------7-5-7-------7-5---| x2
|--0-0---0-0---0---0-0---0-0---0---0-0---0-0-----------------------|
|------------------------------------------------------------------|
   . .   . .   .   . .   . .   .   . .   . .

Intro x2

Guitar IV
|-----------------------------------------------|
|-----------------------------------------------|
|-2---------------------------------------------|
|-2--5--2--3-------------3--5--10--7------------| x4
|-0--5--2--3-------------3--5--10--7------------|
|----3--0--1-------------1--3--8---5------------|
Guitar II
|-----------------------------------------------|
|-----------------------------------------5-8~--|
|-------------2-0-2-4-2-0-------------5-7-------|
|-----------------------------------------------| x4
|-----------------------------------------------|
|-----------------------------------------------|
Guitar III
|-----------------------------------------------|
|-----------------------------------------------|
|--------------------------------------------9~-|
|-------------3-2-3-5-3-2-------------7-9-10----| x4
|-----------------------------------------------|
|-----------------------------------------------|

Intro until fade out...

Feel free to contact me at ckyfonzie@gmail.com for any information.
Comments