In Flames - Dreamscape Chords & Tabs

 

Dreamscape Chords & Tabs

In Flames Chords & Tabs

Version: 1 Type: Tab 0 ratings
1 star 2 stars 3 stars 4 stars 5 stars
comments

Dreamscape Tab

   
                          IN FLAMES - DREAMSCAPE
                        From the Album LUNAR STRAIN
                    Copyright 1993 Wrong Again Records
                        Version 2.0 - JANUARY 2001

Transcribed by: Mike O'Neil

For Questions, Comments, Newest Version, or Corrections contact
Mike O'Neil: mike@dsrmusic.com

Check Out the Ultimate In Flames Tribute Site at:
 http://www.in-flames.com


..  - palm mute          /  - slide up to
 \  - slide down to      ~  - vibrato
 h  - hammer on          b  - bend
 p  - pull off            Suffixes for bend
                          ph - pinch harmonic
                           f - full bend    h - half bend
*  - see comment           r - release      t - tap bend
X  - percussion mute       ~ - vibrato bend
@  - slight palm mute     () - sustained note
"  - tremelo


Tune 1 step down (D, G, C, F, A, D)

Riff A.1                                            
|---------------------------------------------------|
|--------------------8------------------------------|
|--------7-----5-----------------4-----5------------| Git
|--5-555---555---555---555-4-444---444---444-4-444--|  I
|---------------------------------------------------|
|---------------------------------------------------|
|    ...   ...   ...   ...   ...   ...   ... . ...
|---------------------------------------------------|
|--------------------8------------------------------|
|--------7-----5-----------------4-----2------------| Git
|--5-555---555---555---555-4-444---444---444-4-444--|  II
|---------------------------------------------------|
|---------------------------------------------------|
     ...   ...   ...   ...   ...   ...   ... . ...  


Riff A.2
|---------------------------------------------------|
|---------------------------------------------------|
|--------2-----0------------------------------------| Git 
|--2-222---222---222-4-222-2-----2-----4-----4------|  I
|--------------------------3-333---333-5-555---555--|
|---------------------------------------------------|
|    ...   ...   ...   ...   ...   ...   ...   ...
|---------------------------------------------------|
|---------------------------------------------------|
|--------2-----4-----2------------------------------| Git
|--2-222---222---222---222-2-----5-----4-----7------|  II
|--------------------------3-333---333-5-555---555--|
|---------------------------------------------------|
     ...   ...   ...   ...   ...   ...   ...   ...


Riff A.3 (played in place of A.2)
|---------------------------------------------------|
|---------------------------------------------------|
|--------2-----0------------------------------------| Git 
|--2-222---222---222-4-222-2-----5-----4------------|  I
|--------------------------3-333---333-5------------|
|---------------------------------------------------|
|    ...   ...   ...   ...   ...   ...
|---------------------------------------------------|
|---------------------------------------------------|
|--------2-----4-----2------------------------------| Git
|--2-222---222---222---222-2-----2-----4------------|  II
|--------------------------3-333---333-5------------|
|---------------------------------------------------|
     ...   ...   ...   ...   ...   ...


Riff B                                                    
|---------------------------------------------------|
|---------------------------------------------------|
|---------------------------------------------------| Gtr
|--5-----5-----5-----5---4-5-----5-----5-----5---4--|  I
|--7-777-7-777-7-777-7---5-7-777-7-777-7-777-7---5--|
|---------------------------------------------------|
|    ...   ...   ...         ...   ...   ...
|---------------------------------------------------|
|---------------------------------------------------|
|---------------------------------------------------| Gtr
|--2"----------5"----4"--0"2"----------5"----4"--0"-|  II
|---------------------------------------------------|
|---------------------------------------------------|


(Riff B cont.)
|---------------------------------------------------|
|---------------------------------------------------|
|--4-----4-----2-----2-----5-----5-----4-----4------| Gtr
|--5-555-5-555-4-444-4-444-7-777-7-777-5-555-5-555--|  I
|---------------------------------------------------|
|---------------------------------------------------|
|    ...   ...   ...   ...   ...   ...   ...   ...
|---------------------------------------------------|
|---------------------------------------------------|
|---------------------------------------------------| Gtr
|--2"----5"----4"----0"----7"----5"----4"----0"-----|  II
|---------------------------------------------------|
|---------------------------------------------------|
                                                            
[ Tab from: http://www.guitartabs.cc/tabs/i/in_flames/dreamscape_tab.html ]
Riff C.1
|---------------------------------------------------|
|---------------------------------------------------|
|--4-444-4-5-2-4------------------------------------| Gtr
|--2-222-2-----------5-4-2--------------------------|  I
|--------------------------2-222-2-2-2-3-333-5-555--|
|---------------------------------------------------|
|
|---------------------------------------------------|
|---------------------------------------------------|
|--4-444---2---------------------------------2------| Gtr
|--------5---4-5-----2-4-5-4-444---------------5-4--|  II
|--------------------------------2-3-5-3-333--------|
|---------------------------------------------------|


Riff C.2
|---------------------------------------------------|
|---------------------------------------------------|
|--4-444-4-5-2-4-444--------------------------------| Gtr
|--2-222-------------5-4-2--------------------------|  I
|--------------------------2-222-2-2-2-3-333-5-555--|
|---------------------------------------------------|
|
|---------------------------------------------------|
|---------------------------------------------------|
|--4-444---2---------------------------------2------| Gtr
|--------5---4-5-555-2-4-5-4-444---------------5-4--|  II
|--------------------------------2-3-5-3-333--------|
|---------------------------------------------------|
                                       * ***
  * These notes may be slightly palm muted and might
    also have an E thrown in (2nd fret, 4th string).
    The poor quality of the production makes it hard
    for me to tell

Riff D
|---------------------------------------------|
|---------------------------------------------|
|--------------2-----2-222-2-4-5-4-2---4-2----| Gtr
|--5-555-5-555---4-------------------5-----5--|  I
|------------------5--------------------------|
|---------------------------------------------|
|                           
|---------------------------------------------|
|---------------------------------------------|
|------------------------------2--------------| Gtr
|--2-222-2-222-4-----4-444-4-5---5-4---5-4----|  II
|----------------5-2------------------5----5--|
|---------------------------------------------|          

                                                             
Riff E
|---------------------------------------------------|
|---------------------------------------------------|
|--7-777-7-5-4-5-555-4-444-----------4-5-555-2-222--| Gtr
|--------------------------2-222-2-5----------------|  I
|---------------------------------------------------|
|---------------------------------------------------|
|
|---------------------------------------------------|
|---------------------------------------------------|
|--7-777-7-5-4-5-555-------4-444-4-5-4-2-222-2-222--| Gtr
|--------------------4-5-7--------------------------|  II
|---------------------------------------------------|
|---------------------------------------------------|


(Riff E cont.)
|---------------------------------------------------|
|---------------------------------------------------|
|--------------------4-444-2-222--------------------| Gtr
|--------5-555-2-222-------------4-444-5-555-5-555--|  I
|--3-333--------------------------------------------|
|---------------------------------------------------|
|
|---------------------------------------------------|
|---------------------------------------------------|
|--5-555-5-4-2-4-444-----------------2--------------| Gtr
|--------------------5-555-4-444-4-5---2-222-2-222--|  II
|---------------------------------------------------|
|---------------------------------------------------|


Riff F (outro)
|---------------------------------------------------------|
|---------------------------------------------------------|
|---------2-----0-----------------------------------------| Git
|--2--222---222---222--4--222--2-(2)--4-(4)--5-(5)--------|  I
|------------------------------3-(3)--5-(5)--7-(7)-----7--|
|--------------------------------------------0-(0)-----0--|
|     ...   ...   ...     ...                       *
|---------------------------------------------------------|
|---------------------------------------------------------|
|---------2-----4------2----------------------------------| Git
|--2--222---222---222-----222--2-(2)--4-(4)--5-(5)--------|  I
|------------------------------3-(3)--5-(5)--7-(7)-----7--|
|--------------------------------------------0-(0)-----0--|
      ...   ...   ...     ...                       *


* Drum outro goes here


ORDER OF SONG
================
Riff A.1 1x
Riff A.2 1x
Riff A.1 1x
Riff A.3 1x
Riff B 2x
Riff C.1 1x
Riff C.2 2x
Riff C.1 1x
Riff B 2x
Riff D 2x
Riff C.1 1x
Riff C.2 1x
Riff D 2x
Riff E 2x
Riff B 2x
Riff D 2x
Riff C.1 1x
Riff C.2 1x
Riff D 2x
Riff E 2x
Riff B 2x
Riff A.1 1x
Riff A.2 1x
Riff A.1 1x
Riff F
Comments